PEGASUS FANTASY

SAINT SEIYA

TABS ~ By Fefe (Tron544)

 

Intro:

 

GUITAR 1:

 

e|--------------------|

B|--------------------|

G|--5------5--5-------|

D|--5------5--5----6--|

A|--3------3--3----6--|

E|-----------------4--|

 

GUITAR 2:

 

e|------------------------------------------------------------------|

B|---------8----------------------------------------8------------9--|

G|------8-----10--7------------8--7--------------8-----10--7--------|

D|--10---------------8--6--10--------8-------10---------------8-----|

A|--------------------------------------10--------------------------|

E|------------------------------------------------------------------|

 

GUITAR 1:

 

e|------------------------------------------------------------------------------------------|

B|------------------------------------------------------------------------------------------|

G|--5--x--x--x--x--x--x---x--x--x--x--x--x--x--x---x--x--x--x--x--x--x--x-------------------|

D|--5--x--x--x--x--x--x---x--x--x--x--x--x--x--x---x--x--x--x--x--x--x--x---6------6--6--6--|

A|--3--x--x--x--x--x--x---x--x--x--x--x--x--x--x---x--x--x--x--x--x--x--x---6------6--6--6--|

E|--------------------------------------------------------------------------4------4--4--4--|

 

GUITAR 2:

 

e|------------------------------------------------------------------|

B|---------8----------------------------------------8------------9--|

G|------8-----10--7------------8--7--------------8-----10--7--------|

D|--10---------------8--6--10--------8-------10---------------8-----|

A|--------------------------------------10--------------------------|

E|------------------------------------------------------------------|

 

 

Verse/Estrofa:

 

GUITAR 1:

 

e|-------------------------------------------------------------------------------------------------------|

B|-------------------------------------------------------------------------------------------------------|

G|--(5)-x--x--x--x--x--x--x---x--x--x--x--x--x--x--x-----------------------------------------------------|

D|--(5)-x--x--x--x--x--x--x---x--x--x--x--x--x--x--x---(5)-x--x--x--x--x--x--x---x--x--x--x--x--x--x--x--|

A|--(3)-x--x--x--x--x--x--x---x--x--x--x--x--x--x--x---(5)-x--x--x--x--x--x--x---x--x--x--x--x--x--x--x--|

E|-----------------------------------------------------(3)-x--x--x--x--x--x--x---x--x--x--x--x--x--x--x--|

 

GUITAR 2:

 

e|----------------|----------------------------------------|

B|----------------|--8----8--------------------------------|

G|------7--8--10--|----------10--10--8--10--8--7--------7--|

D|--10------------|---------------------------------10-----|

A|----------------|----------------------------------------|

E|----------------|----------------------------------------|

 

GUITAR 1:

 

e|---------------------------------------------------------------------------------------------------------|

B|---------------------------------------------------------------------------------------------------------|

G|------------------------------------------------------(8)-x--x--x--x--x--x--x----------------------------|

D|--(6)-x--x--x--x--x--x--x---(8)-x--x--x--x--x--x--x---(8)-x--x--x--x--x--x--x---(5)-x--x--x--x--x--x--x--|

A|--(6)-x--x--x--x--x--x--x---(8)-x--x--x--x--x--x--x---(6)-x--x--x--x--x--x--x---(5)-x--x--x--x--x--x--x--|

E|--(4)-x--x--x--x--x--x--x---(6)-x--x--x--x--x--x--x-----------------------------(3)-x--x--x--x--x--x--x--|

 

GUITAR 2:

 

e|-----------------------------------------------------------|

B|--------------------------8--8---8--11--12-----------------|

G|--8----7--8--10----8--10-------------------------7--8--10--|

D|---------------------------------------------10------------|

A|-----------------------------------------------------------|

E|-----------------------------------------------------------|

 

GUITAR 1:

 

e|-------------------------------------------------------------------------------------------------------|

B|-------------------------------------------------------------------------------------------------------|

G|--(5)-x--x--x--x--x--x--x---x--x--x--x--x--x--x--x-----------------------------------------------------|

D|--(5)-x--x--x--x--x--x--x---x--x--x--x--x--x--x--x---(5)-x--x--x--x--x--x--x---x--x--x--x--x--x--x--x--|

A|--(3)-x--x--x--x--x--x--x---x--x--x--x--x--x--x--x---(5)-x--x--x--x--x--x--x---x--x--x--x--x--x--x--x--|

E|-----------------------------------------------------(3)-x--x--x--x--x--x--x---x--x--x--x--x--x--x--x--|

 

GUITAR 2:

 

e|----------------------------------------|

B|--8----8--------------------------------|

G|----------10--10--8--10--8--7--------7--|

D|---------------------------------10-----|

A|----------------------------------------|

E|----------------------------------------|

 

GUITAR 1:

 

e|-----------------------------------------------------------------------------------------------------|

B|--------------------------------------------------------------------------------------------------8--|

G|------------------------------------------------------(5)-x--x--x--x--x--x--x---5--5--7--7--8--8-----|

D|--(6)-x--x--x--x--x--x--x---(8)-x--x--x--x--x--x--x---(5)-x--x--x--x--x--x--x---5--5--------------5--|

A|--(6)-x--x--x--x--x--x--x---(8)-x--x--x--x--x--x--x---(3)-x--x--x--x--x--x--x---3--3--5--5--6--6-----|

E|--(4)-x--x--x--x--x--x--x---(6)-x--x--x--x--x--x--x--------------------------------------------------|

 

GUITAR 2:

 

e|-------------------------------------------|

B|----------------8--------------------------|

G|--8--7------8------10--8--7--7-------------|

D|--------10----------------------8--8-/-10--|

A|-------------------------------------------|

E|-------------------------------------------|

 

GUITAR 3:

 

e|-------------|

B|-------------|

G|--5-(H)-\W\--|

D|-------------|

A|-------------|

E|-------------|

Pegasus Fantasy - Tron544
00:00 / 00:00
DONATE%20BUTTON%20(EN)_edited.png

Pre-Chorus/Pre-Estribillo:

 

GUITAR 1:

 

e|--------------------------------------------------------|

B|--------------------------------------------------------|

G|----------------(8)-x--8--(7)-x--7--(5)-x--5--(3)-x--3--|

D|--6------8------(8)-x--8--(7)-x--7--(5)-x--5--(3)-x--3--|

A|--6------8------(6)-x--6--(5)-x--5--(3)-x--3--(1)-x--1--|

E|--4------6----------------------------------------------|

 

GUITAR 2:

 

e|-----------------------------------------------------------------|

B|--9--8--8------8-------------------11--9--8----------------------|

G|-----------10-----10--10---------------------10--10--8--------7--|

D|--------------------------8--8--8-------------------------10-----|

A|-----------------------------------------------------------------|

E|-----------------------------------------------------------------|

 

GUITAR 1:

 

e|-----------------------------------------------------------------------------------------------|

B|-----------------------------------------------------------------------------------------------|

G|-----------------------------------------------------------------------------------------------|

D|--(6)-x--x--x--x--x--x--x---(8)-x--x--x--x--x--x--x---(5)-x--x--x--x--x--x--x---5--5--5--5--5--|

A|--(6)-x--x--x--x--x--x--x---(8)-x--x--x--x--x--x--x---(5)-x--x--x--x--x--x--x---5--5--5--5--5--|

E|--(4)-x--x--x--x--x--x--x---(6)-x--x--x--x--x--x--x---(3)-x--x--x--x--x--x--x---3--3--3--3--3--|

 

GUITAR 2:

 

e|----------------------------------------------------------|

B|----------------------------------------------------------|

G|--8--7------8--7------10--8--7--10---------------------7--|

D|--------10--------10-----------------8--8--8--9---10------|

A|----------------------------------------------------------|

E|----------------------------------------------------------|

 

 

Chorus/Estribillo:

 

GUITAR 1:

 

e|---------------------------------------------------------------------------------------|

B|---------------------------------------------------------------------------------------|

G|--5--x--x---x--x--x--x--x--x--x--x-----------------------------------------------------|

D|--5--x--x---x--x--x--x--x--x--x--x---(6)-x--x--x--x--x--x--x---x--x--x--x--x--x--x--x--|

A|--3--x--x---x--x--x--x--x--x--x--x---(6)-x--x--x--x--x--x--x---x--x--x--x--x--x--x--x--|

E|-------------------------------------(4)-x--x--x--x--x--x--x---x--x--x--x--x--x--x--x--|

 

GUITAR 2:

 

e|--------------------------------------|

B|---------8--------8----------------8--|

G|--8--10-------10-----10--8--7---------|

D|-------------------------------10-----|

A|--------------------------------------|

E|--------------------------------------|

 

GUITAR 3:

 

e|--15----|

B|--18-b--|

G|--------|

D|--------|

A|--------|

E|--------|

 

GUITAR 1:

 

e|-------------------------------------------------------------------------------------------------|

B|-------------------------------------------------------------------------------------------------|

G|----------------------------------------------(8)-x--x--x--x--x--x--x----------------------------|

D|--8--x--x--8--x--x---x--x--x--x--x--x--x--x---(8)-x--x--x--x--x--x--x---(5)-x--x--x--x--x--x--x--|

A|--8--x--x--8--x--x---x--x--x--x--x--x--x--x---(6)-x--x--x--x--x--x--x---(5)-x--x--x--x--x--x--x--|

E|--6--x--x--6--x--x---x--x--x--x--x--x--x--x-----------------------------(3)-x--x--x--x--x--x--x--|

 

GUITAR 2:

 

e|-------------------------------------------------|

B|------------------11--9--8--8------8----------8--|

G|--7--8--10----10---------------10------8--10-----|

D|-------------------------------------------------|

A|-------------------------------------------------|

E|-------------------------------------------------|

 

GUITAR 3:

 

e|--10--------15-----16----15----|

B|--13-b------18-b---19-b--18-b--|

G|-------------------------------|

D|-------------------------------|

A|-------------------------------|

E|-------------------------------|

 

GUITAR 1:

 

e|------------------------------------------------------------------------------------------------|

B|------------------------------------------------------------------------------------------------|

G|--5--x--x--5--x--x---x--x--x--x--x--x--x--x-----------------------------------------------------|

D|--5--x--x--5--x--x---x--x--x--x--x--x--x--x---(6)-x--x--x--x--x--x--x---x--x--x--x--x--x--x--x--|

A|--3--x--x--3--x--x---x--x--x--x--x--x--x--x---(6)-x--x--x--x--x--x--x---x--x--x--x--x--x--x--x--|

E|----------------------------------------------(4)-x--x--x--x--x--x--x---x--x--x--x--x--x--x--x--|

 

GUITAR 2:

 

e|--------------------------------------|

B|---------8--------8----------------8--|

G|--8--10-------10-----10--8--7---------|

D|-------------------------------10-----|

A|--------------------------------------|

E|--------------------------------------|

 

GUITAR 3:

 

e|--15----|

B|--18-b--|

G|--------|

D|--------|

A|--------|

E|--------|

 

GUITAR 1:

 

e|----------------------------------------------|

B|----------------------------------------------|

G|----------------------------------------------|

D|--8--x--x--8---x--x--x--x--x--8---x--x--x--8--|

A|--8--x--x--8---x--x--x--x--x--8---x--x--x--8--|

E|--6--x--x--6---x--x--x--x--x--6---x--x--x--6--|

 

GUITAR 2:

 

e|-----------------------------------------|

B|----------------------------9--8------8--|

G|--7--8--10---7--7--8--10----------10-----|

D|-----------------------------------------|

A|-----------------------------------------|

E|-----------------------------------------|

 

GUITAR 3:

 

e|--10------10----|

B|--13-b----13-b--|

G|----------------|

D|----------------|

A|----------------|

E|----------------|

 

 

Outro:

 

GUITAR 1:

 

e|--------------------------------------------|

B|--------------------------------------------|

G|--5--------------------5--x--x--5--x--x--5--|

D|--5------6------8------5--x--x--5--x--x--5--|

A|--3------6------8------3--x--x--3--x--x--3--|

E|---------4------6---------------------------|

 

GUITAR 2:

 

e|-------------------------------------------8-----8-----8-----|

B|-------------------------------------11----11-b--11-b--11-b--|

G|--8---8--10--12--8---8--10--12--10---------------------------|

D|-------------------------------------------------------------|

A|-------------------------------------------------------------|

E|-------------------------------------------------------------|

 

GUITAR 3:

 

e|----------------------------------|

B|----------------------------------|

G|-----------7--8-------------------|

D|--10---10--------6---6--8--10--8--|

A|----------------------------------|

E|----------------------------------|

©2015 by Fefe - Tron544

Sigueme en:

  • YouTube - White Circle
  • Facebook - White Circle
  • Instagram - White Circle
  • Twitter - White Circle
This site was designed with the
.com
website builder. Create your website today.
Start Now