PAPERMOON

SOUL EATER

CHORDS ~ By Fefe (Tron544)

 

* TUNED HALF STEP DOWN / AFINADO UN SEMITONO ABAJO *

Chords used/Acordes utilizados:

B5: x.2.4.4.x.x
C#5: x.4.6.6.x.x
D#5: x.6.8.8.x.x  -  D#+/Fx: 3.6.5.x.x.x
E5: 0.2.2.x.x.x or x.7.9.9.x.x
F#5: 2.4.4.x.x.x
G°: 3.4.5.x.x.x or x.10.11.12.x.x
G#5: 4.6.6.x.x.x  -  G#m: 3.5.5.3.3.3

%: Same as the previous measure/Lo mismo que el compas anterior

 

eb|---------------------------------|
Bb|---------------------------------|
Gb|---------------------------------|
Db|---------------------------------|
Ab|---------------------------------|
Eb|--4-7-6-4-7-6-4-7-6-4-7-6-4-7-6--|

 


| G#5 | % | G° | % |
| E5 | % | C#5 | F#5 |

 


       G#m                  G°
   I'M FALLING DOWN INTO MY SHADOW
            E5
   Iki wo hisomete
        C#5        F#5
   Matteiru DEADLY NIGHT
         G#m            G°
   DON'T SCARY majo ga egaita
              E5
   Kabocha no basha mo
    C#5        F#5
   Sono me ni utsuseru kara

 


E5      G°
   SEE YOU IN YOUR DREAMS
   G#5    B5
   YEAH BABY
     E5          C#5   D#5
   Kowai yume da to shitemo

 

   G#5
   FAIRY BLUE
     E5            B5   F#5    G°      G#5
   Kimi no tame ni... Hoshi wo kudaki
     E5       B5
   Kazaritsuketa
         F#5 G°
   BLACK PAPER MOON
   G#5      E5           B5
   Shinjite kureta nara
        F#5 G°       G#5    D#+/Fx
   WHEN YOU'RE LOST, HERE I AM
      F#5            C#5
   FOREVER WITH YOUR SOUL
   E5              G°
   Miagereba kagayaku tsuki no youni

 


| G#5 | % | G° | % |
| E5 | F#5 | G#5 ||

PAPERMOON - Tron544
00:00 / 00:00
DONATE%20BUTTON%20(EN)_edited.png

TABS ~ By Fefe (Tron544)

 

Intro:

GUITAR (Lead):

eb|-----------------------------------|
Bb|-----------------------------------|
Gb|-----------------------------------|
Db|--------------------------------9--|
Ab|-----------------------------------|
Eb|--4-7-6-4-7-6-4-7-6-4-7-6-4-7-6----|

eb|-----------------------------------------------|
Bb|-----------------------------------------------|
Gb|-------11-----9----8--------------8------------|
Db|----9------9-----------11--------------11---9--|
Ab|-----------------------------------------------|
Eb|-----------------------------------------------|

eb|-------------------------------------------|
Bb|-------------------------------------------|
Gb|-------11-----9----8-----------------------|
Db|----9------9-----------11---------8--------|
Ab|-------------------------------------------|
Eb|-------------------------------------------|

 


Verse/Estrofa:

GUITAR (Vocals):

eb|----------|----------------------------------------------------|
Bb|----------|----------------------------------------------------|
Gb|--11--11--|--------------------------8h9---8-8-----------------|
Db|----------|----9--9----9------9--11---------------11--9--8--9--|
Ab|----------|---------------11-----------------------------------|
Eb|----------|----------------------------------------------------|

eb|-------------------------------------------------------|
Bb|-------------------------------------------------------|
Gb|---------------------------8--8-8h9---8--------11--11--|
Db|--8---------9---------9-11---------------8-------------|
Ab|--------11---------11----------------------------------|
Eb|-------------------------------------------------------|

eb|----------------------------------------------------|
Bb|----------------------------------------------------|
Gb|--------------------------8h9---8-8-----------------|
Db|----9--9----9------9--11---------------11--9--8--9--|
Ab|---------------11-----------------------------------|
Eb|----------------------------------------------------|

eb|------------------------------------------------------|
Bb|------------------------------------------------------|
Gb|-------------------11--11---9-8--9--8-------8h9--8-8--|
Db|--8---------9---------------------------11------------|
Ab|--------11--------------------------------------------|
Eb|------------------------------------------------------|


Pre-Chorus/Pre-Estribillo:

GUITAR (Vocals):

eb|-------------------------------------------------|
Bb|-----------------------------------------12--11--|
Gb|-------11--11--9--8--9--8---------8--------------|
Db|-------------------------------9-----------------|
Ab|-------------------------------------------------|
Eb|-------------------------------------------------|

GUITAR (Lead):

eb|----------------------------------------------------------------------------|
Bb|-------------------------------------------------------------12-----12------|
Gb|----9-p8---9-p8---9/11--11-9-8-9-8-------9-p8---9-p8---9/11------11-----11--|
Db|--9------9------9------------------9-8-9------9------9----------------------|
Ab|----------------------------------------------------------------------------|
Eb|----------------------------------------------------------------------------|

GUITAR (Vocals):

eb|--------------------------------------------------|
Bb|-------9--12------12--11------11--11/12-----11----|
Gb|--------------------------------------------------|
Db|--------------------------------------------------|
Ab|--------------------------------------------------|
Eb|--------------------------------------------------|

GUITAR (Lead):

eb|----------------------------------------------|
Bb|--11-----11--12---------14-----14--16---------|
Gb|----------------------------------------------|
Db|--8------8---9----------11-----11--13---------|
Ab|----------------------------------------------|
Eb|----------------------------------------------|

 


Chorus/Estribillo:

GUITAR (Vocals):

eb|-----------------9------------------------------------------|
Bb|--11--12-11--12-----12--11--9--------------9----------------|
Gb|-------------------------------11------11-----11--9--11--8--|
Db|------------------------------------------------------------|
Ab|------------------------------------------------------------|
Eb|------------------------------------------------------------|

GUITAR (Lead):

eb|--11------11-----12-------12------11------11-----9---9---9---9--9---|
Bb|------12------12------12------12------12------12-11--11--11--11-11--|
Gb|--------------------------------------------------------------------|
Db|--------------------------------------------------------------------|
Ab|--------------------------------------------------------------------|
Eb|--------------------------------------------------------------------|

GUITAR (Vocals):

eb|------------------------------------------------|
Bb|-------------9----------------------------------|
Gb|-------8--9-----11--9--8------8--8/9----8-------|
Db|--------------------------------------------11--|
Ab|------------------------------------------------|
Eb|------------------------------------------------|

GUITAR (Lead):

eb|-----7----7--12--12--12--12-12--11--11--11-11-----------------|
Bb|--9-----9----12--12--12--12-12--12--12--12-12--14----12---11--|
Gb|--------------------------------------------------------------|
Db|-----------------------------------------------14----13---11--|
Ab|--------------------------------------------------------------|
Eb|--------------------------------------------------------------|

GUITAR (Vocals):

eb|-----------------9--------------------------------------------|
Bb|--11--12--11-12-----12--11--9----------11/12--11------11--11--|
Gb|-------------------------------11-----------------------------|
Db|--------------------------------------------------------------|
Ab|--------------------------------------------------------------|
Eb|--------------------------------------------------------------|

GUITAR (Lead):

eb|--11------11-----12-------12------11------11-----9---9---9---9--9---|
Bb|------12------12------12------12------12------12-11--11--11--11-11--|
Gb|--------------------------------------------------------------------|
Db|--------------------------------------------------------------------|
Ab|--------------------------------------------------------------------|
Eb|--------------------------------------------------------------------|

GUITAR (Vocals):

eb|----------------------9------------------------|
Bb|-------9--12------12-----12--11--12--9---------|
Gb|-----------------------------------------------|
Db|-----------------------------------------------|
Ab|-----------------------------------------------|
Eb|-----------------------------------------------|

GUITAR (Lead):

eb|-----7----7-------7----7-------7----7---9--9--9--9-9--|
Bb|--9-----9---9-8------8----8-7-----7---7-9--9--9--9-9--|
Gb|------------------------------------------------------|
Db|------------------------------------------------------|
Ab|------------------------------------------------------|
Eb|------------------------------------------------------|

GUITAR (Vocals):

eb|---------------------------------------------------------|
Bb|--9--12-9-------------------8------8-8-8-----------------|
Gb|-----------11--9---8---------------------11----9---9/11--|
Db|---------------------9--11-------------------------------|
Ab|---------------------------------------------------------|
Eb|---------------------------------------------------------|

GUITAR (Lead):

eb|--12-12-12--12--12--12--12--12-12-12-9--9-9--9--9--9---9---9--9--9--9---|
Bb|--12-12-12--12--12--12--12--12-12-12-8--8-8--8--8--11--11--11-11-11-11--|
Gb|------------------------------------------------------------------------|
Db|------------------------------------------------------------------------|
Ab|------------------------------------------------------------------------|
Eb|------------------------------------------------------------------------|


Outro:

GUITAR (Lead):

eb|-------------------------------------------------------------------|
Bb|--9--------11----12---17---------16----14---12---------14-------9--|
Gb|-------------------------------------------------------------------|
Db|--6--------8-----9----14---------13----11---9----------11-------6--|
Ab|-------------------------------------------------------------------|
Eb|-------------------------------------------------------------------|

©2015 by Fefe - Tron544

Sigueme en:

  • YouTube - White Circle
  • Facebook - White Circle
  • Instagram - White Circle
  • Twitter - White Circle
This site was designed with the
.com
website builder. Create your website today.
Start Now