PAPERMOON

SOUL EATER

TABS ~ By Fefe (Tron544)

 

Intro:

 

e|---------------------------------------|----------------------------------|

B|---------------------------------------|----------------------------------|

G|--------10-----8---7-----------7-------|--------10-----8---7--------------|

D|--8--8------8----------10----------10--|--8--8------8----------10------7--|

A|---------------------------------------|----------------------------------|

E|---------------------------------------|----------------------------------|

 

 

Verse/Estrofa:

 

e|-----------------------------------------|-----------------------------------------------------|

B|-----------------------------------------|-----------------------------------------------------|

G|--10--10------------------------8--7--7--|--------------------------------------7--7--8--7-----|

D|----------8--8----8------8--10-----------|--10--8--7--8--7------8--------8--10--------------7--|

A|---------------------10------------------|------------------10-------10------------------------|

E|-----------------------------------------|-----------------------------------------------------|

 

e|-----------------------------------------|------------------------------------------------------------|

B|-----------------------------------------|------------------------------------------------------------|

G|--10--10------------------------8--7--7--|---------------------------10--10--8--7--8--7------8--7--7--|

D|----------8--8----8------8--10-----------|--10--8--7--8--7------8------------------------10-----------|

A|---------------------10------------------|------------------10----------------------------------------|

E|-----------------------------------------|------------------------------------------------------------|

 

 

Pre-Chorus/Pre-Estribillo:

 

e|------------------------------|-----------------------------------------|

B|------------------------------|--11--10---8--11----11--10---10--11--10--|

G|--10--10--8--7--8--7-------7--|-----------------------------------------|

D|------------------------8-----|-----------------------------------------|

A|------------------------------|-----------------------------------------|

E|------------------------------|-----------------------------------------|

CHORDS ~ CLICK HERE TO VIEW THEM!

 

* You need the software called GUITAR PRO 5

       ~> DOWNLOAD IT HERE <~

Paper Moon - Tron544
00:00 / 00:00
DONATE%20BUTTON%20(EN)_edited.png

Chorus/Estribillo:

 

e|------------------8------------------------------------------|--------------------------------------|

B|--10--11--10--11-----11--10--8--------------8----------------|--------8-----------------------------|

G|--------------------------------10------10-----10--8--10--7--|--7--8-----10--8--7------7--8--7------|

D|-------------------------------------------------------------|----------------------------------10--|

A|-------------------------------------------------------------|--------------------------------------|

E|-------------------------------------------------------------|--------------------------------------|

 

e|------------------8-----------------------------|--------------------------8-----------------|

B|--10--11--10--11-----11--10--8----------11--10--|--10--10---8--11------11-----11--10--11--8--|

G|--------------------------------10--------------|--------------------------------------------|

D|------------------------------------------------|--------------------------------------------|

A|------------------------------------------------|--------------------------------------------|

E|------------------------------------------------|--------------------------------------------|

 

e|--------------------------------------------------------|

B|--8--11--8-------------------7------7--7--7-------------|

G|------------10--8--7-------------------------10--8--10--|

D|----------------------8--10-----------------------------|

A|--------------------------------------------------------|

E|--------------------------------------------------------|

 

 

Outro:

 

e|-----------------------|-------------------------------|

B|--8------10---11---16--|--15---13---11------13------8--|

G|-----------------------|-------------------------------|

D|--5------7----8----13--|--12---10---8-------10------5--|

A|-----------------------|-------------------------------|

E|-----------------------|-------------------------------|

©2015 by Fefe - Tron544

Sigueme en:

  • YouTube - White Circle
  • Facebook - White Circle
  • Instagram - White Circle
  • Twitter - White Circle
This site was designed with the
.com
website builder. Create your website today.
Start Now