~ OVERFLY ~

TABLATURAS ~ By Fefe - Tron544

 

Intro:

 

GUITAR 1:

 

e|---------------------------------------------------------|

B|---------------------------------------------------------|

G|------------------------------(6)--x--x--x---x--x--x--x--|

D|--(3)--x--x--x---x--x--x--x---(6)--x--x--x---x--x--x--x--|

A|--(3)--x--x--x---x--x--x--x---(4)--x--x--x---x--x--x--x--|

E|--(1)--x--x--x---x--x--x--x------------------------------|

 

GUITAR 2:

 

e|-----------------------------------------|

B|-----------------------------------------|

G|--13--12--13----13--12--15----13--12--13-|

D|-----------------------------------------|

A|-----------------------------------------|

E|-----------------------------------------|

 

GUITAR 1:

 

e|----------------------------------------------------------|

B|----------------------------------------------------------|

G|--(8)--x--x--x---x--x--x--x---(13)--x--x--x---x--x--x--x--|

D|--(8)--x--x--x---x--x--x--x---(11)--x--x--x---x--x--x--x--|

A|--(6)--x--x--x---x--x--x--x---(11)--x--x--x---x--x--x--x--|

E|----------------------------------------------------------|

 

GUITAR 2:

 

e|----------------------|

B|----------13--14--13--|

G|--15------------------|

D|------13--------------|

A|----------------------|

E|----------------------|

 

GUITAR 1:

 

e|-------------------------------------------------------------------------|

B|-------------------------------------------------------------------------|

G|--(5)--x--x--x---x--x--x--x---(6)--x--x--x---x--x--x--x---10--10------8--|

D|--(5)--x--x--x---x--x--x--x---(6)--x--x--x---x--x--x--x---10--10------8--|

A|--(3)--x--x--x---x--x--x--x---(4)--x--x--x---x--x--x--x---8---8-------6--|

E|-------------------------------------------------------------------------|

 

GUITAR 2:

 

e|------11--11--------11--11----------------------------------------|

B|------------------------------------------13----------------------|

G|--13------------13------------13--12--13------15--13--12--13--13--|

D|------------------------------------------------------------------|

A|------------------------------------------------------------------|

E|------------------------------------------------------------------|

 

GUITAR 1:

 

e|-----11-----------------------11----------9--8-----|

B|--9------9--8---8--9-------9------9--11---------9--|

G|----------------------8----------------------------|

D|---------------------------------------------------|

A|---------------------------------------------------|

E|---------------------------------------------------|

 

e|-----11-----------------------------------------11--|

B|--9------9--8---8--9-------9--8--9--11---9--11------|

G|----------------------8-----------------------------|

D|----------------------------------------------------|

A|----------------------------------------------------|

E|----------------------------------------------------|

 

 

Verse/Estrofa:

 

GUITAR 1:

 

e|---------------------------------------------------------|

B|---------------------------------------------------------|

G|--(5)--x--x--x---x--x--x--x---(5)--x--x--x---x--x--x--x--|

D|--(5)--x--x--x---x--x--x--x---(5)--x--x--x---x--x--x--x--|

A|--(3)--x--x--x---x--x--x--x---(3)--x--x--x---x--x--x--x--|

E|---------------------------------------------------------|

 

GUITAR 2:

 

e|-----------------------------------------|

B|-----------------------------------------|

G|-----------------------------------------|

D|--10--10--10--10--10--10--11--10--8------|

A|-------------------------------------11--|

E|-----------------------------------------|

 

GUITAR 1:

 

e|---------------------------------------------------------|

B|---------------------------------------------------------|

G|--(6)--x--x--x---x--x--x--x---(6)--x--x--x---x--x--x--x--|

D|--(6)--x--x--x---x--x--x--x---(6)--x--x--x---x--x--x--x--|

A|--(4)--x--x--x---x--x--x--x---(4)--x--x--x---x--x--x--x--|

E|---------------------------------------------------------|

 

GUITAR 2:

 

e|-----------------------------------------|

B|-----------------------------------------|

G|-----------------------------------------|

D|--10--10--10--10--10--10--11--10--8------|

A|-------------------------------------11--|

E|-----------------------------------------|

 

GUITAR 1:

 

e|----------------------------------------------------------|

B|----------------------------------------------------------|

G|--(10)--x--x--x---x--x--x--x---(8)--x--x--x---x--x--x--x--|

D|--(10)--x--x--x---x--x--x--x---(8)--x--x--x---x--x--x--x--|

A|--(8)---x--x--x---x--x--x--x---(6)--x--x--x---x--x--x--x--|

E|----------------------------------------------------------|

 

GUITAR 2:

 

e|----------------------------------------|

B|----------------------------------------|

G|----------------------8-h-10--8---------|

D|--10--10--10--10--10-------------10--8--|

A|----------------------------------------|

E|----------------------------------------|

 

GUITAR 1:

 

e|---------------------------------------------------------|

B|---------------------------------------------------------|

G|--(6)--x--x--x---x--x--x--x---(6)--x--x--x---x--x--x--x--|

D|--(6)--x--x--x---x--x--x--x---(6)--x--x--x---x--x--x--x--|

A|--(4)--x--x--x---x--x--x--x---(4)--x--x--x---x--x--x--x--|

E|---------------------------------------------------------|

 

GUITAR 2:

 

e|-------------------------------------|

B|-------------------------------------|

G|-------------------------------------|

D|------8----------------10--8------8--|

A|--11-----11--11----11---------11-----|

E|-------------------------------------|

 

 

Pre-Chorus/Pre-Estribillo:

 

GUITAR 1:

 

e|-----------------------------------------------------|

B|-----------------------------------------------------|

G|--3--x--x---3--x--x--x--x---3--x--x---3--x--x--x--x--|

D|--3--x--x---3--x--x--x--x---3--x--x---3--x--x--x--x--|

A|--1--x--x---1--x--x--x--x---1--x--x---1--x--x--x--x--|

E|-----------------------------------------------------|

 

GUITAR 2:

 

e|--------------------------------------|

B|--------------------------------------|

G|--8--8--8--8--8--8---8--10--8------8--|

D|-------------------------------10-----|

A|--------------------------------------|

E|--------------------------------------|

 

GUITAR 1:

 

e|-----------------------------------------------------|

B|-----------------------------------------------------|

G|--5--x--x---5--x--x--x--x---5--x--x---5--x--x--x--x--|

D|--5--x--x---5--x--x--x--x---5--x--x---5--x--x--x--x--|

A|--3--x--x---3--x--x--x--x---3--x--x---3--x--x--x--x--|

E|-----------------------------------------------------|

 

GUITAR 2:

 

e|----------------------------------------|

B|----------------------------------------|

G|--8--8--8--8--8--8---8--10---12--10--8--|

D|----------------------------------------|

A|----------------------------------------|

E|----------------------------------------|

 

GUITAR 1:

 

e|-----------------------------------------------------|

B|-----------------------------------------------------|

G|--6--x--x---6--x--x--x--x---6--x--x---6--x--x--x--x--|

D|--6--x--x---6--x--x--x--x---6--x--x---6--x--x--x--x--|

A|--4--x--x---4--x--x--x--x---4--x--x---4--x--x--x--x--|

E|-----------------------------------------------------|

 

GUITAR 2:

 

e|--------------------------------------|

B|--------------------------------------|

G|--8--8--8--8--8--8---8--10--8------8--|

D|-------------------------------10-----|

A|--------------------------------------|

E|--------------------------------------|

 

GUITAR 1:

 

e|---------------------------------|

B|---------------------------------|

G|--8---8--8--8---8--8--8---8---8--|

D|--8---8--8--8---8--8--8---8---8--|

A|--6---6--6--6---6--6--6---6---6--|

E|---------------------------------|

 

GUITAR 2:

 

e|-------------------------------------|

B|-------------------------------------|

G|--8--10---8--8----8--10--8--10---12--|

D|-------------------------------------|

A|-------------------------------------|

E|-------------------------------------|

 

 

Chorus/Estribillo:

 

GUITAR 1:

 

e|---------------------------|

B|---------------------------|

G|---------6------8------13--|

D|--3------6------8------13--|

A|--3------4------6------11--|

E|--1------------------------|

 

GUITAR 2:

 

e|--------------------------------------------------------------|

B|--------------------------------------------------13--14--13--|

G|--13--12--13----13--12--15----13--12--13--15------------------|

D|----------------------------------------------13--------------|

A|--------------------------------------------------------------|

E|--------------------------------------------------------------|

 

GUITAR 1:

 

e|--------------------------|

B|--------------------------|

G|--5------6------8---------|

D|--5------6------8------6--|

A|--3------4------6------6--|

E|-----------------------4--|

 

GUITAR 2:

 

e|---------------------------------------------------------------------------|

B|----------------------------------------------------------13---------------|

G|--13--13--12--13----13--13--12--15----13--12--13--15----------15---12--13--|

D|------------------------------------------------------13-------------------|

A|---------------------------------------------------------------------------|

E|---------------------------------------------------------------------------|

 

GUITAR 1:

 

e|---------------------------|

B|---------------------------|

G|--5------6------8------13--|

D|--5------6------8------13--|

A|--3------4------6------11--|

E|---------------------------|

 

GUITAR 2:

 

e|------------------------------------------------------------------|

B|------------------------------------------------------13--14--13--|

G|--13--12--13----13--13--12--15----13--12--13--15------------------|

D|--------------------------------------------------13--------------|

A|------------------------------------------------------------------|

E|------------------------------------------------------------------|

 

GUITAR 1:

 

e|--------------------------------|

B|--------------------------------|

G|--5------6------10--10---8---6--|

D|--5------6------10--10---8---6--|

A|--3------4------8---8----6---4--|

E|--------------------------------|

 

GUITAR 2:

 

e|------11--11--------11--11----------------------------------------|

B|------------------------------------------13----------------------|

G|--13------------13------------13--12--13------15--13--12--13--13--|

D|------------------------------------------------------------------|

A|------------------------------------------------------------------|

E|------------------------------------------------------------------|

 

 

Overfly - Tron544
00:00 / 00:00

©2019 by Fefe - Tron544

Sigueme en:

  • YouTube - White Circle
  • Facebook - White Circle
  • Instagram - White Circle
  • Twitter - White Circle
This site was designed with the
.com
website builder. Create your website today.
Start Now