~ OVER SOUL ~

TABLATURAS ~ By Fefe - Tron544

 

Intro:

GUITAR (Vocals):

e|-------|-------------------------------------|
B|--7-9--|--10----9----7-----------------------|
G|-------|-------------------------------------|
D|-------|-------------------------------------|
A|-------|-------------------------------------|
E|-------|-------------------------------------|

GUITAR (Rhythm):

e|--------------------------------------------|
B|--------------------------------------------|
G|--------------------------4--------4--------|
D|----------4-x-x-x-x-x-x-x-4--------4--------|
A|----------4-x-x-x-x-x-x-x-2--------2--------|
E|----------2-x-x-x-x-x-x-x-------------------|

GUITAR (Lead):

e|------------------------------------------------------------------14-14--|
B|--------------------14-15-----------------------14-15--------------------|
G|-----------------16-------16-16-14-14-16-16--16-------16-16-14-16--------|
D|-------------------------------------------------------------------------|
A|-------------------------------------------------------------------------|
E|-------------------------------------------------------------------------|

GUITAR (Rhythm):

e|----------------------------|
B|----------------------------|
G|--4--------2-x-x-x-2-2-2-2--|
D|--4--------2-x-x-x-2-2-2-2--|
A|--2--------0-x-x-x-0-0-0-0--|
E|----------------------------|

GUITAR (Lead):

e|---------------------------------------17-19--|
B|--17--15--14--15--17-15-17-15-17-17-19--------|
G|----------------------------------------------|
D|----------------------------------------------|
A|----------------------------------------------|
E|----------------------------------------------|

 


Verse/Estrofa:

GUITAR (Vocals):

e|-------|--------------------------------------------------------------------|
B|-------|--------7-----------------7---------------------------------7-------|
G|-------|--7-7-9-------------7-7-9--------7-7-7-7-7--7-7-7-9-9-9-7-9---------|
D|--9-9--|----------9-----9-9---------9----------------------------------9-9--|
A|-------|--------------------------------------------------------------------|
E|-------|--------------------------------------------------------------------|

GUITAR (Rhythm):

e|------------------------------------------------------------------|
B|------------------------------------------------------------------|
G|--(4)-x-4-----#-#-x-x-4-----#-#-(7)-x-7------------------9-9-9-9--|
D|--(4)-x-4-----#-#-x-x-4-----#-#-(7)-x-7-----#-#-(7)-x-7--9-9-9-9--|
A|--(2)-x-2-----#-#-x-x-2-----#-#-(5)-x-5-----#-#-(7)-x-7--7-7-7-7--|
E|--------------------------------------------#-#-(5)-x-5-----------|

GUITAR (Vocals):

e|----------------------------------------------------------------|
B|--------7-----------------7----------------------------------7--|
G|--7-7-9-------------7-7-9--------7-7-7-7-7--7-7-7-9-9-9-7-9-----|
D|----------9-----9-9---------9-----------------------------------|
A|----------------------------------------------------------------|
E|----------------------------------------------------------------|

GUITAR (Rhythm):

e|----------------------------------------------------------------------|
B|----------------------------------------------------------------------|
G|--(4)-x-4-----#-#-x-x-4-----#-#-(7)-x-7------------------11-11-11-11--|
D|--(4)-x-4-----#-#-x-x-4-----#-#-(7)-x-7-----#-#-(7)-x-7--11-11-11-11--|
A|--(2)-x-2-----#-#-x-x-2-----#-#-(5)-x-5-----#-#-(7)-x-7--9--9--9--9---|
E|--------------------------------------------#-#-(5)-x-5---------------|

 


Pre-Chorus/Pre-Estribillo:

GUITAR (Vocals):

e|-----------------------------------------------------------------------------------|
B|----8-8--7------10-10--8-7-----11-11-11-8-7-------------------------------7---7-8--|
G|------------7--------------9----------------9-9--7--6--7----6-7-6-7-9-7-9---9------|
D|----------------------------------------------------------9------------------------|
A|-----------------------------------------------------------------------------------|
E|-----------------------------------------------------------------------------------|

GUITAR (Rhythm):

e|-----------------------------------------------------------------------|
B|-----------------------------------------------------------------------|
G|-----------------------------------------------------------------------|
D|--5--------7--------8--------9--------2-x-x-x-4-x-x-x-5-x-x-x-7-x-x-x--|
A|--5--------7--------9--------9--------2-x-x-x-4-x-x-x-5-x-x-x-7-x-x-x--|
E|--3--------5--------6--------7--------0-x-x-x-2-x-x-x-3-x-x-x-5-x-x-x--|

GUITAR (Vocals):

e|------------------------------|
B|--7------7--11----------------|
G|------------------------------|
D|------------------------------|
A|------------------------------|
E|------------------------------|

GUITAR (Rhythm):

e|--------------------------------------------|
B|--------------------------------------------|
G|--------------------------------------------|
D|--8-x-x-8-x-x-8-x--8-8-8-8-8-8-8-8-8--------|
A|--9-x-x-9-x-x-9-x--9-9-9-9-9-9-9-9-9--------|
E|--6-x-x-6-x-x-6-x--6-6-6-6-6-6-6-6-6--------|

 


Chorus/Estribillo:

GUITAR (Vocals):

e|-------|---------------------------------9-9--7-----------------------------------|
B|--7-7--|--10-7-7-----7-7--7-7-10-7-7------------10-9-7-6---------------------7-7--|
G|-------|---------9-9-----------------9-9-----------------7-6-------6-9/11---------|
D|-------|-----------------------------------------------------9-8-9----------------|
A|-------|--------------------------------------------------------------------------|
E|-------|--------------------------------------------------------------------------|

GUITAR (Rhythm):

e|-----------------------------------------|
B|-----------------------------------------|
G|------------7----6----4----6-------------|
D|--4----2----7----6----4----6----4--------|
A|--4----2----5----4----2----4----4--------|
E|--2----0------------------------2--------|

GUITAR (Vocals):

e|---------------------------------9-9--7------------------------------|
B|--10-7-7-----7-7--7-7-10-7-7------------10-9-7-6--6--7--9--7----7-7--|
G|---------9-9-----------------9-9-------------------------------------|
D|---------------------------------------------------------------------|
A|---------------------------------------------------------------------|
E|---------------------------------------------------------------------|

GUITAR (Rhythm):

e|---------------------------------------------------|
B|---------------------------------------------------|
G|------------7----6----4----6-----------------------|
D|--4----2----7----6----4----6----4-4-4-4-4-4-4-4-4--|
A|--4----2----5----4----2----4----4-4-4-4-4-4-4-4-4--|
E|--2----0------------------------2-2-2-2-2-2-2-2-2--|

GUITAR (Vocals):

e|---------------------------------9-9--7-------------------------------|
B|--10-7-7-----7-7--7-7-10-7-7------------10-9-7-6-7-9-9/10--------7-9--|
G|---------9-9-----------------9-9--------------------------------------|
D|----------------------------------------------------------------------|
A|----------------------------------------------------------------------|
E|----------------------------------------------------------------------|

GUITAR (Rhythm):

e|-----------------------------------5--------|
B|--------------------------------------5-----|
G|------------7----6----4----6---7---------7--|
D|--4----2----7----6----4----6---7------------|
A|--4----2----5----4----2----4---5------------|
E|--2----0------------------------------------|

GUITAR (Vocals):

e|---------------------------------------------|
B|--10----9----7------7-9-10----9----7------7--|
G|---------------------------------------------|
D|---------------------------------------------|
A|---------------------------------------------|
E|---------------------------------------------|

GUITAR (Rhythm):

e|--------------------------------------------------------------------|
B|--------------------------------------------------------------------|
G|--7-x-x-x--------------------------7-x-x-x--------------------------|
D|--7-x-x-x-2-x-x-x-4-x-x-x-x-x-x-x--7-x-x-x-2-x-x-x-4-x-x-x-x-x-x-x--|
A|--5-x-x-x-2-x-x-x-4-x-x-x-x-x-x-x--5-x-x-x-2-x-x-x-4-x-x-x-x-x-x-x--|
E|----------0-x-x-x-2-x-x-x-x-x-x-x----------0-x-x-x-2-x-x-x-x-x-x-x--|

GUITAR (Vocals):

e|--------------------------------------------|
B|--9/10----9----7------9/10----9----7--------|
G|--------------------------------------------|
D|--------------------------------------------|
A|--------------------------------------------|
E|--------------------------------------------|

GUITAR (Rhythm):

e|--------------------------------------------------------------|
B|--------------------------------------------------------------|
G|--7-x-x-x--------------------------7--------------------------|
D|--7-x-x-x-2-x-x-x-4-x-x-x-4-4-4-4--7----2----4-x-x-x-x-x-x-x--|
A|--5-x-x-x-2-x-x-x-4-x-x-x-4-4-4-4--5----2----4-x-x-x-x-x-x-x--|
E|----------0-x-x-x-2-x-x-x-2-2-2-2-------0----2-x-x-x-x-x-x-x--|

 


Outro:

GUITAR (Rhythm):

e|--------------------|
B|--------------------|
G|--4--------4--------|
D|--4--------4--------|
A|--2--------2--------|
E|--------------------|

GUITAR (Lead):

e|---------|---------------------------------------------14-14--|
B|-----14--|--15-----------------------14-15--------------------|
G|--16-----|-----16-16-14-14-16-16--16-------16-16-14-16--------|
D|---------|----------------------------------------------------|
A|---------|----------------------------------------------------|
E|---------|----------------------------------------------------|

GUITAR (Rhythm):

e|------------------------------------------------|
B|------------------------------------------------|
G|--4--------2-x-x-x-2-2-2-2--4----4----4------4--|
D|--4--------2-x-x-x-2-2-2-2--4----4----4------4--|
A|--2--------0-x-x-x-0-0-0-0--2----2----2------2--|
E|------------------------------------------------|

GUITAR (Lead):

e|---------------------------------------17--------17--------17-19------|
B|--17--15--14--15--17-15-17-15-17-17-19-----17-19-----17-19--------14--|
G|----------------------------------------------------------------------|
D|----------------------------------------------------------------------|
A|----------------------------------------------------------------------|
E|----------------------------------------------------------------------|

Over Soul - Tron544
00:00 / 00:00

©2019 by Fefe - Tron544

Sigueme en:

  • YouTube - White Circle
  • Facebook - White Circle
  • Instagram - White Circle
  • Twitter - White Circle
This site was designed with the
.com
website builder. Create your website today.
Start Now