~ ONLY MY RAILGUN ~

TABLATURAS ~ By Fefe - Tron544

 
 

Intro:

GUITAR (Vocals):

e|------------------------------------------|
B|--------------------------------12-11-----|
G|--------------------------------------11--|
D|------------------------------------------|
A|------------------------------------------|
E|------------------------------------------|

GUITAR (Rhythm):

e|----------------------------------------------------------|
B|----------------------------------------------------------|
G|----------------------------------------------------------|
D|--(6)-x-x-x-x-x-x-x--x-x-x-x-x-x-x-x--x-x-x-x-x-x-x-x--x--|
A|--(6)-x-x-x-x-x-x-x--x-x-x-x-x-x-x-x--x-x-x-x-x-x-x-x--x--|
E|--(4)-x-x-x-x-x-x-x--x-x-x-x-x-x-x-x--x-x-x-x-x-x-x-x--x--|

GUITAR (Vocals):

e|-------------------------------------------------------------12------------11------------|
B|--------------------------------------------11-12-14-11----------14--14-14-----12-11-----|
G|--11-13-13--11-11-13-13--11-11-13-13--13-13--------------11--------------------------11--|
D|-----------------------------------------------------------------------------------------|
A|-----------------------------------------------------------------------------------------|
E|-----------------------------------------------------------------------------------------|

GUITAR (Rhythm):

e|-----------------------------------------------------------------|
B|-----------------------------------------------------------------|
G|-----4h6--4-3------------------------------------------4---------|
D|--6--4h6--4---4-2--x-x-x-x--------4--------4-4-2-2-----4---------|
A|--6-------------2--x-x-x-x-2(PH)--4----1-1---------4-4-2---------|
E|--4-------------0--x-x-x-x--------2-------------------------6----|

GUITAR (Vocals):

e|---------------------------------------------------------------------------------------|
B|--------------------------------------------11-12-14----------11-12-14-11--------------|
G|--11-13-13--11-11-13-13--11-11-13-13--13-13----------13----13--------------11------11--|
D|-------------------------------------------------------------------------------13------|
A|---------------------------------------------------------------------------------------|
E|---------------------------------------------------------------------------------------|

GUITAR (Rhythm):

e|----------------------------------------------------------------------------------------|
B|----------------------------------------------------------------------------------------|
G|----------------------------------6-x-x-x-x-6-x-x-x-x-6-x-x--8-x-x-x-x-8-x-x-x-x-8-x-x--|
D|--6----4----2---------------------6-x-x-x-x-6-x-x-x-x-4-x-x--8-x-x-x-x-8-x-x-x-x-8-x-x--|
A|--6----4----2----------------/(6)-4-x-x-x-x-4-x-x-x-x-4-x-x--6-x-x-x-x-6-x-x-x-x-6-x-x--|
E|--4----2----0----(0)-(2)-(4)------------------------------------------------------------|

GUITAR (Vocals):
 
e|------------------------------------------------------|
B|------------12-11-------------------------------------|
G|--11-13-13--------11-----11-11-13-13------------------|
D|---------------------13-------------------------------|
A|------------------------------------------------------|
E|------------------------------------------------------|

GUITAR (Rhythm):

e|--------------------------------------------------------------------------------|
B|--------------------------------------------------------------------------------|
G|--------------------------------------------------------------------------------|
D|--2----4----8-x-x-x-x--------------------6(PH)--4(PH)---------------------------|
A|--2----4----8-x-x-x-x----------------------------------6(PH)-4(PH)--------------|
E|--0----2----6-x-x-x-x-2h4-x-x-x-x-2h4-x----------------------------7(PH)-4(PH)--|

 


Verse/Estrofa:

GUITAR (Vocals):

e|--------------------------------------------------------------------11-------|
B|-----------------11----------------11-11h13----13-14-13-11-13-11-------13----|
G|--13----13-12-13----13----13-12-13-------------------------------13----------|
D|-----------------------------------------------------------------------------|
A|-----------------------------------------------------------------------------|
E|-----------------------------------------------------------------------------|

e|---------------------------------------------------------------------------|
B|-----------------11----------------11-11h13------11------------------------|
G|--13----13-12-13----13----13-12-13-----------10-----13-12-13-12---10-10----|
D|---------------------------------------------------------------------------|
A|---------------------------------------------------------------------------|
E|---------------------------------------------------------------------------|

e|----------------------------------11-11----11-11-11----------------------------------------|
B|--13-13-13-13-13--13-11-----------------------------14-13-11-14-13-11----------------------|
G|------------------------13-12--12-------------------------------------13-12-12-10-12/13----|
D|-------------------------------------------------------------------------------------------|
A|-------------------------------------------------------------------------------------------|
E|-------------------------------------------------------------------------------------------|

GUITAR (Rhythm):

e|--------------------------------------------------------------------------|
B|----------------------------------------------------------8-9-8h9p8-------|
G|------6-----6---------8-----8---------5-----5----------10-----------10-8--|
D|----6-----6-----6---8-----8-----8---5-----5-----5---10--------------------|
A|--4-----4-----4---6-----6-----6---3-----3-----3---8-----------------------|
E|--------------------------------------------------------------------------|

GUITAR (Rhythm Harmony):

e|---------------------------------------------------------------------------------|
B|------6-----6---------8-----8---------8-----8--------------11-13-11h13p11--------|
G|----6-----6-----6---8-----8-----8---8-----8-----8----10-13----------------13-12--|
D|--6-----6-----6---8-----8-----8---8-----8-----8---10-----------------------------|
A|---------------------------------------------------------------------------------|
E|---------------------------------------------------------------------------------|

GUITAR (Vocals):

e|-----------------------------------------------------------------------------------------|
B|---------------------11-12-11--11--------------------------------------------------------|
G|--13-13-13-13-13--13--------------11-11----11-10--10----10-11-13--13-12h13---12-10-12----|
D|-----------------------------------------------------13----------------------------------|
A|-----------------------------------------------------------------------------------------|
E|-----------------------------------------------------------------------------------------|

GUITAR (Rhythm):

e|--------------------------6-----------------------------------|
B|------------------------7---9-7-------------------------------|
G|--9-------------------6---------6--6-------6----8-------------|
D|----9-6-------6-9-8-9--------------6------------8-------------|
A|--------7---7----------------------4---6/8------6----6(PH)----|
E|----------7---------------------------------------------------|

GUITAR (Rhythm Harmony):

e|---------------------------6-9-7-6----|
B|--9--------------------------------7--|
G|----9--------------9-6-8-9------------|
D|------9----------9--------------------|
A|--------11----11----------------------|
E|-----------12-------------------------|

 


Chorus/Estrofa:

GUITAR (Vocals):

e|------------|-------------------------------------------------------------12------------11------------|
B|--12-11-----|--------------------------------------------11-12-14-11----------14--14-14-----12-11-----|
G|--------11--|--11-13-13--11-11-13-13--11-11-13-13--13-13--------------11--------------------------11--|
D|------------|-----------------------------------------------------------------------------------------|
A|------------|-----------------------------------------------------------------------------------------|
E|------------|-----------------------------------------------------------------------------------------|

GUITAR (Rhythm):

e|-----------------------------------------------------------------|
B|-----------------------------------------------------------------|
G|-----4h6--4-3------------------------------------------4---------|
D|--6--4h6--4---4-2--x-x-x-x--------4--------4-4-2-2-----4---------|
A|--6-------------2--x-x-x-x-2(PH)--4----1-1---------4-4-2---------|
E|--4-------------0--x-x-x-x--------2-------------------------6----|

GUITAR (Vocals):

e|--------------------------------------------------------------------------------------------|
B|--------------------------------------------11-12-14----------11-12-14-11---------12-11-----|
G|--11-13-13--11-11-13-13--11-11-13-13--13-13----------13----13--------------11-----------11--|
D|------------------------------------------------------------------------------13------------|
A|--------------------------------------------------------------------------------------------|
E|--------------------------------------------------------------------------------------------|

GUITAR (Rhythm):

e|----------------------------------------------------------------------------------------|
B|----------------------------------------------------------------------------------------|
G|----------------------------------6-x-x-x-x-6-x-x-x-x-6-x-x--8-x-x-x-x-8-x-x-x-x-8-x-x--|
D|--6----4----2---------------------6-x-x-x-x-6-x-x-x-x-4-x-x--8-x-x-x-x-8-x-x-x-x-8-x-x--|
A|--6----4----2----------------/(6)-4-x-x-x-x-4-x-x-x-x-4-x-x--6-x-x-x-x-6-x-x-x-x-6-x-x--|
E|--4----2----0----(0)-(2)-(4)------------------------------------------------------------|

GUITAR (Vocals):

e|-------------------------------------------------------------12------------11------------|
B|--------------------------------------------11-12-14-11----------14--14-14-----12-11-----|
G|--11-13-13--11-11-13-13--11-11-13-13--13-13--------------11--------------------------11--|
D|-----------------------------------------------------------------------------------------|
A|-----------------------------------------------------------------------------------------|
E|-----------------------------------------------------------------------------------------|

GUITAR (Rhythm):

e|-----------------------------------------------------------------|
B|-----------------------------------------------------------------|
G|-----4h6--4-3------------------------------------------4---------|
D|--6--4h6--4---4-2--x-x-x-x--------4--------4-4-2-2-----4---------|
A|--6-------------2--x-x-x-x-2(PH)--4----1-1---------4-4-2---------|
E|--4-------------0--x-x-x-x--------2-------------------------6----|

GUITAR (Vocals):

e|---------------------------------------------------------------------------------------|
B|--------------------------------------------11-12-14----------11-12-14-11--------------|
G|--11-13-13--11-11-13-13--11-11-13-13--13-13----------13----13--------------11------11--|
D|-------------------------------------------------------------------------------13------|
A|---------------------------------------------------------------------------------------|
E|---------------------------------------------------------------------------------------|

GUITAR (Rhythm):

e|----------------------------------------------------------------------------------------|
B|----------------------------------------------------------------------------------------|
G|----------------------------------6-x-x-x-x-6-x-x-x-x-6-x-x--8-x-x-x-x-8-x-x-x-x-8-x-x--|
D|--6----4----2---------------------6-x-x-x-x-6-x-x-x-x-4-x-x--8-x-x-x-x-8-x-x-x-x-8-x-x--|
A|--6----4----2----------------/(6)-4-x-x-x-x-4-x-x-x-x-4-x-x--6-x-x-x-x-6-x-x-x-x-6-x-x--|
E|--4----2----0----(0)-(2)-(4)------------------------------------------------------------|

GUITAR (Vocals):
 
e|------------------------------------------------------|
B|------------12-11-------------------------------------|
G|--11-13-13--------11-----11-11-13-13------------------|
D|---------------------13-------------------------------|
A|------------------------------------------------------|
E|------------------------------------------------------|

GUITAR (Rhythm):

e|------------------------------------------------------------|
B|------------------------------------------------------------|
G|------------------------------------------------------------|
D|--2----4----8-x-x-x-x----------------------6-4---------4-6--|
A|--2----4----8-x-x-x-x--------------------------6-4-----4-6--|
E|--0----2----6-x-x-x-x-2h4-x-x-x-x-2h4-x--4---------7-4-2-4--|

 

only my railgun - Tron544
00:00 / 00:00

©2019 by Fefe - Tron544

Sigueme en:

  • YouTube - White Circle
  • Facebook - White Circle
  • Instagram - White Circle
  • Twitter - White Circle
This site was designed with the
.com
website builder. Create your website today.
Start Now