~ ONEGAI NAVIGATION ~

TABLATURAS ~ By Fefe - Tron544
 

Intro:

 

  /~~~~~~~~~~~~( REPEAT x3 / REPITE x4)~~~~~~~~~~~~\

e|--------------------------------------------------|

B|--------------------------------------------------|

G|--------------------------------------------------|

D|--------------------------------------------------|

A|--------------------------------------5--5--7--7--|

E|--0--0--0--3--3--3--5--5--5--7--7--7--------------|

 

e|-----------------------------------------|

B|-----------------------------------------|

G|-----------------------------------------|

D|-----------------------------------------|

A|--------------------------------------5--|

E|--0--0--0--3--3--3--5--5--7---7---7------|

 

  /~~~~~~~~~~~~~~~~~~~~~~~~~~~~~~~~~~~~~~~~~( REPEAT x4 / REPITE x4 )~~~~~~~~~~~~~~~~~~~~~~~~~~~~~~~~~~~~~~~~~\

e|-------------------------------------------------------------------------------------------------------------|

B|--15--15--15--15--15--15-/-17--17--17--17--17--17--17---10--10--10--10--10--10-/-12--12--12--12--12--12--12--|

G|-------------------------------------------------------------------------------------------------------------|

D|--12--12--12--12--12--12-/-14--14--14--14--14--14--14---7---7---7---7---7---7--/-9---9---9---9---9---9---9---|

A|-------------------------------------------------------------------------------------------------------------|

E|-------------------------------------------------------------------------------------------------------------|

 

 

First Verse/Primera Estrofa:

 

e|--------------------------------------------------------------------------------------------------|

B|--------------------------------------------------------------------------------------------------|

G|--------------------------------------------------------------------------------------------------|

D|--2--x--x--x--x--x--x---x--x--x--x--x--x--x--x---7--x--x--x--x--x--x--x---x--x--x--x--x--x--x--x--|

A|--2--x--x--x--x--x--x---x--x--x--x--x--x--x--x---7--x--x--x--x--x--x--x---x--x--x--x--x--x--x--x--|

E|--0--x--x--x--x--x--x---x--x--x--x--x--x--x--x---5--x--x--x--x--x--x--x---x--x--x--x--x--x--x--x--|

 

e|-----------------------------------------------------------------------------------------------------|

B|-----------------------------------------------------------------------------------------------------|

G|--7--x--x--x--x--x--x--x---x--x--x--x--x--x--x--x----------------------------4--x--x--x--x--x--x--x--|

D|--7--x--x--x--x--x--x--x---x--x--x--x--x--x--x--x---5--x--x--x--x--x--x--x---4--x--x--x--x--x--x--x--|

A|--5--x--x--x--x--x--x--x---x--x--x--x--x--x--x--x---5--x--x--x--x--x--x--x---2--x--x--x--x--x--x--x--|

E|----------------------------------------------------3--x--x--x--x--x--x--x---------------------------|

 

e|-----------------------------------------------------------------------|

B|-----------------------------------------------------------------------|

G|-----------------------------------------------------------------------|

D|--2--2--2--2--2--2---2--2--2--2--2---7--7--7--7--7--7---7--7--7--7--7--|

A|--2--2--2--2--2--2---2--2--2--2--2---7--7--7--7--7--7---7--7--7--7--7--|

E|--0--0--0--0--0--0---0--0--0--0--0---5--5--5--5--5--5---5--5--5--5--5--|

 

e|--------------------------------------------------------------------|

B|--------------------------------------------------------------------|

G|--7--7--7--7--7--7---7--7--7--7--7-------------------7--7--7--7--7--|

D|--7--7--7--7--7--7---7--7--7--7--7---5--5--5--5--5---7--7--7--7--7--|

A|--5--5--5--5--5--5---5--5--5--5--5---5--5--5--5--5---5--5--5--5--5--|

E|-------------------------------------3--3--3--3--3------------------|

 

 

Pre-Chorus/Pre-Estribillo:

 

e|-------------------------------------------------------------------------------------------------|

B|-------------------------------------------------------------------------------------------------|

G|--5--5--5--5--5---7--7--7--7--7---9--9--9--9--9-------------------5--5--5--5--5---7--7--7--7--7--|

D|--5--5--5--5--5---7--7--7--7--7---9--9--9--9--9---7--7--7--7--7---5--5--5--5--5---7--7--7--7--7--|

A|--3--3--3--3--3---5--5--5--5--5---7--7--7--7--7---7--7--7--7--7---3--3--3--3--3---5--5--5--5--5--|

E|--------------------------------------------------5--5--5--5--5----------------------------------|

 

e|--------------------------------------------------------------------------------------|

B|-------------------------------------------------12--12---12----12--12---12---12--12--|

G|--4--x--x--x--x--x--x---x--x--x--x--x--x--x--x----------------------------------------|

D|--4--x--x--x--x--x--x---x--x--x--x--x--x--x--x---9---9----9-----9---9----9----9---9---|

A|--2--x--x--x--x--x--x---x--x--x--x--x--x--x--x----------------------------------------|

E|--------------------------------------------------------------------------------------|

 

 

Chorus/Estribillo:

 

e|-----------------------------------------------------------------------|

B|-----------------------------------------------------------------------|

G|-------------------------------------7--7--7--7--7---------------------|

D|--2--2--2--2--2---7--7--7--7--7--7---7--7--7--7--7---5--5--5--5--5--5--|

A|--2--2--2--2--2---7--7--7--7--7--7---5--5--5--5--5---5--5--5--5--5--5--|

E|--0--0--0--0--0---5--5--5--5--5--5-------------------3--5--3--3--3--3--|

 

e|-----------------------------------------------------------------------|

B|-----------------------------------------------------------------------|

G|--5--5--5--5--5---7--7--7--7--7--7-------------------4--4--4--4--4--4--|

D|--5--5--5--5--5---7--7--7--7--7--7---5--5--5--5--5---4--4--4--4--4--2--|

A|--3--3--3--3--3---5--5--5--5--5--5---5--5--5--5--5---2--2--2--2--2--2--|

E|-------------------------------------3--3--3--3--3---------------------|

 

e|-----------------------------------------------------------------------|

B|-----------------------------------------------------------------------|

G|-------------------------------------7--7--7--7--7---------------------|

D|--2--2--2--2--2---7--7--7--7--7--7---7--7--7--7--7---5--5--5--5--5--5--|

A|--2--2--2--2--2---7--7--7--7--7--7---5--5--5--5--5---5--5--5--5--5--5--|

E|--0--0--0--0--0---5--5--5--5--5--5-------------------3--5--3--3--3--3--|

 

e|-----------------------------------------------------------------------|

B|-----------------------------------------------------------------------|

G|--5--5--5--5--5---7--7--7--7--7--7---9--9--9--9--9---9---9---9---9--9--|

D|--5--5--5--5--5---7--7--7--7--7--7---9--9--9--9--9---9---9---9---9--9--|

A|--3--3--3--3--3---5--5--5--5--5--5---7--7--7--7--7---7---7---7---7--7--|

E|-----------------------------------------------------------------------|

 

 

Interlude/Intermedio:

 

e|------------------------------------|

B|--12-----11-----10-----9------8-----|

G|--14-b---13-b---12-b---11-b---10-b--|

D|------------------------------------|

A|------------------------------------|

E|------------------------------------|

 

 

Second Verse/Segunda Estrofa:

 

e|-----------------------2-h-3---2-h-3-p-2-p-0---------------------------2-h-3---2-h-3-p-2-p-0-----|

B|--------------3--5--0-------------------------3---------------3--5--0-------------------------3--|

G|--0--4--4--0--------------------------------------0--4--4--0-------------------------------------|

D|-------------------------------------------------------------------------------------------------|

A|-------------------------------------------------------------------------------------------------|

E|-------------------------------------------------------------------------------------------------|

 

e|------------------12-------------------------------12------14------15------17------|

B|--15------12--------------15------12-------15--------------------------------------|

G|------14------14------14------14------14-------14------14------14------14------14--|

D|-----------------------------------------------------------------------------------|

A|-----------------------------------------------------------------------------------|

E|-----------------------------------------------------------------------------------|

 

 

Pre-Chorus/Pre-Estribillo:

 

e|-------------------------------------------------------------------------------------------------|

B|-------------------------------------------------------------------------------------------------|

G|--5--5--5--5--5---7--7--7--7--7---9--9--9--9--9-------------------5--5--5--5--5---7--7--7--7--7--|

D|--5--5--5--5--5---7--7--7--7--7---9--9--9--9--9---7--7--7--7--7---5--5--5--5--5---7--7--7--7--7--|

A|--3--3--3--3--3---5--5--5--5--5---7--7--7--7--7---7--7--7--7--7---3--3--3--3--3---5--5--5--5--5--|

E|--------------------------------------------------5--5--5--5--5----------------------------------|

 

e|--------------------------------------------------------------------------------------|

B|-------------------------------------------------12--12---12----12--12---12---12--12--|

G|--4--x--x--x--x--x--x---x--x--x--x--x--x--x--x----------------------------------------|

D|--4--x--x--x--x--x--x---x--x--x--x--x--x--x--x---9---9----9-----9---9----9----9---9---|

A|--2--x--x--x--x--x--x---x--x--x--x--x--x--x--x----------------------------------------|

E|--------------------------------------------------------------------------------------|

 

 

Solo:

 

e|---------------------------------------------------------------------------------------|

B|--12--12--12--12--15---15--12--10----8--8--10--8--10--8---10-/-12--12--10--12--10--12--|

G|---------------------------------------------------------------------------------------|

D|--9---9---9---9---12---12--9---7-----5--5--7---5--7---5---7--/-9---9---7---9---7---9---|

A|---------------------------------------------------------------------------------------|

E|---------------------------------------------------------------------------------------|

 

e|----------------------------------------------------------------|

B|--12-/-13--13--13--13--13--13--13-/-15--15--15--15--15--15--15--|

G|----------------------------------------------------------------|

D|--9--/-10--10--10--10--10--10--10-/-12--12--12--12--12--12--12--|

A|----------------------------------------------------------------|

E|----------------------------------------------------------------|

 

e|----------------------------------------------------|

B|--8--8--8--8--8--8--8-/-15--15--15--15--15--15--15--|

G|----------------------------------------------------|

D|--5--5--5--5--5--5--5-/-12--12--12--12--12--12--12--|

A|----------------------------------------------------|

E|----------------------------------------------------|

 

e|----------------------------------------------------------------------------------------|

B|--12------------------------------------------------------------------------------------|

G|-------14--12--------------12---------------11-h-12-p-11-h-12-p-11-h-12-p-11-h-12-p-11--|

D|---------------14--12--14------14--12--14-----------------------------------------------|

A|----------------------------------------------------------------------------------------|

E|----------------------------------------------------------------------------------------|

 

e|----------------------------------------------------------------------------------------------|

B|-------------------------------------------------15--------15---------15--------15--------15--|

G|------------------------------12--14--12---14-b------14-b------14--b------14-b------14-b------|

D|--14--12--------------12--14------------------------------------------------------------------|

A|----------14--12--14--------------------------------------------------------------------------|

E|----------------------------------------------------------------------------------------------|

 

e|--17--17--17--17--17--17--17--17---17--17--17--17--17--17--17--17---15--15---15---15--15---15---15--15--|

B|--17--17--17--17--17--17--17--17---17--17--17--17--17--17--17--17---15--15---15---15--15---15---15--15--|

G|--------------------------------------------------------------------------------------------------------|

D|--------------------------------------------------------------------------------------------------------|

A|--------------------------------------------------------------------------------------------------------|

E|--------------------------------------------------------------------------------------------------------|

 

 

Chorus/Estribillo:

 

e|-----------------------------------------------------------------------|

B|-----------------------------------------------------------------------|

G|-------------------------------------7--7--7--7--7---------------------|

D|--2--2--2--2--2---7--7--7--7--7--7---7--7--7--7--7---5--5--5--5--5--5--|

A|--2--2--2--2--2---7--7--7--7--7--7---5--5--5--5--5---5--5--5--5--5--5--|

E|--0--0--0--0--0---5--5--5--5--5--5-------------------3--5--3--3--3--3--|

 

e|-----------------------------------------------------------------------|

B|-----------------------------------------------------------------------|

G|--5--5--5--5--5---7--7--7--7--7--7-------------------4--4--4--4--4--4--|

D|--5--5--5--5--5---7--7--7--7--7--7---5--5--5--5--5---4--4--4--4--4--2--|

A|--3--3--3--3--3---5--5--5--5--5--5---5--5--5--5--5---2--2--2--2--2--2--|

E|-------------------------------------3--3--3--3--3---------------------|

 

e|-----------------------------------------------------------------------|

B|-----------------------------------------------------------------------|

G|-------------------------------------7--7--7--7--7---------------------|

D|--2--2--2--2--2---7--7--7--7--7--7---7--7--7--7--7---5--5--5--5--5--5--|

A|--2--2--2--2--2---7--7--7--7--7--7---5--5--5--5--5---5--5--5--5--5--5--|

E|--0--0--0--0--0---5--5--5--5--5--5-------------------3--5--3--3--3--3--|

 

e|-----------------------------------------------------------------------|

B|-----------------------------------------------------------------------|

G|--5--5--5--5--5---7--7--7--7--7--7---9--9--9--9--9---9---9---9---9--9--|

D|--5--5--5--5--5---7--7--7--7--7--7---9--9--9--9--9---9---9---9---9--9--|

A|--3--3--3--3--3---5--5--5--5--5--5---7--7--7--7--7---7---7---7---7--7--|

E|-----------------------------------------------------------------------|

 

 

Outro:

 

e|---------------------------------------------------12-(H)----------------------------|

B|-----------------------------------------------------------12-(H)------7-(H)---------|

G|------------------------------------------------------------------------------7-(H)--|

D|-------------------------------------------------------------------------------------|

A|--------------------------------------5--5--7--7-------------------------------------|

E|--0--0--0--3--3--3--5--5--5--7--7--7-------------------------------------------------|

 

e|----------------------------------------------|

B|----------------------------------------------|

G|-------------------------------------------9--|

D|-------------------------------------------9--|

A|--------------------------------------5----7--|

E|--0--0--0--3--3--3--5--5--7---7---7-----------|

Onegai Navigation - Tron544
00:00 / 00:00

©2019 by Fefe - Tron544

Sigueme en:

  • YouTube - White Circle
  • Facebook - White Circle
  • Instagram - White Circle
  • Twitter - White Circle
This site was designed with the
.com
website builder. Create your website today.
Start Now