ONE VISION

DIGIMON TAMERS

TABS ~ By Fefe (Tron544)

 

Intro:

 

e|-------------------------------------------------------------------------|

B|--8--8--8--8--7------------------------8--8--8--10--7--------------------|

G|-----------------9--7--7--9--9--9----------------------9--7--7-----------|

D|----------------------------------------------------------------9--9--9--|

A|-------------------------------------------------------------------------|

E|-------------------------------------------------------------------------|

 

e|----------------------------------------------------------------|

B|--8--8--8--8--7--------------------7--8------10--7--7--7--------|

G|-----------------9--7--7--9--9--9-------------------------9--9--|

D|----------------------------------------------------------------|

A|----------------------------------------------------------------|

E|----------------------------------------------------------------|

 

e|----------------------------------------------|

B|--20--20--20--20--19--------------------------|

G|----------------------21--19--19--21--21--21--|

D|----------------------------------------------|

A|----------------------------------------------|

E|----------------------------------------------|

e|----------------------------------------------|

B|--20--20--20--22--19--------------------------|

G|----------------------21--19--19--------------|

D|----------------------------------21--21--21--|

A|----------------------------------------------|

E|----------------------------------------------|

 

e|----------------------------------------------------------|

B|--20--20--20--20--19------------------------------20--20--|

G|----------------------21--19--19--21--21--21--------------|

D|----------------------------------------------------------|

A|----------------------------------------------------------|

E|----------------------------------------------------------|

 

 

Verse/Estrofa:

 

e|---------------------------------------------------------|

B|---------------------------------------------------------|

G|--9------------------------------------------------------|

D|-----9--7------7--9--9------9--7------9--7------7--9--9--|

A|-----------10-----------10--------10--------10-----------|

E|---------------------------------------------------------|

 

e|---------------------------------------------------------|

B|---------------------------------------------------------|

G|--9------------------------------------------------------|

D|-----9--7------7--9--9------9--7------9--7---------------|

A|-----------10-----------10--------10--------10--9--7--7--|

E|---------------------------------------------------------|

 

e|---------------------------------------------------------|

B|---------------------------------------------------------|

G|--9------------------------------------------------------|

D|-----9--7------7--9--9------9--7------9--7------7--9--9--|

A|-----------10-----------10--------10--------10-----------|

E|---------------------------------------------------------|

 

e|---------------------------------------------------------|

B|---------------------------------------------------------|

G|--9------------------------------------------------------|

D|-----9--7------7--9--9------9--7------9--7---------------|

A|-----------10-----------10--------10--------10--9--7--7--|

E|---------------------------------------------------------|

One Vision - Tron544
00:00 / 00:00
DONATE%20BUTTON%20(EN)_edited.png

Pre-Chorus/Pre-Estribillo:

 

e|--------------------------------------------|

B|--------------------------------------------|

G|--------------------------------------------|

D|--9--9--10--7------7----7--7--9-------------|

A|---------------10----------------10--9--10--|

E|--------------------------------------------|

 

e|----------------------------------------------------|

B|----------------------------------------------------|

G|---------------------------------------9--7--9--11--|

D|--9--9--10--7------7---9--10--12--14----------------|

A|---------------10-----------------------------------|

E|----------------------------------------------------|

 

 

Chorus/Estribillo:

 

e|-------------------------------------------------------------------------|

B|--8--8--8--8--7------------------------8--8--8--10--7--------------------|

G|-----------------9--7--7--9--9--9----------------------9--7--7-----------|

D|----------------------------------------------------------------9--9--9--|

A|-------------------------------------------------------------------------|

E|-------------------------------------------------------------------------|

 

e|------------------------------------------------------------|

B|--8--8--8--8--7------------------------------------------7--|

G|-----------------9--7--7--9--9--9---------------7--9--9-----|

D|-----------------------------------9--7------9--------------|

A|------------------------------------------------------------|

E|------------------------------------------------------------|

 

e|-------------------------------------------------------------------------|

B|--8--8--8--8--7------------------------8--8--8--10--7--------------------|

G|-----------------9--7--7--9--9--9----------------------9--7--7-----------|

D|----------------------------------------------------------------9--9--9--|

A|-------------------------------------------------------------------------|

E|-------------------------------------------------------------------------|

 

e|----------------------------------------------------------------|

B|--8--8--8--8--7--------------------7--8------10--7--7--7--------|

G|-----------------9--7--7--9--9--9-------------------------9--9--|

D|----------------------------------------------------------------|

A|----------------------------------------------------------------|

E|----------------------------------------------------------------|

 

                                               Ending/Final A        Ending/Final A

e|----------------------------------------------|----------|----------------------------------|

B|--20--20--20--20--19--------------------------|--20--20--|--20--20--20--22--19--------------|

G|----------------------21--19--19--21--21--21--|----------|----------------------21--19--21--|

D|----------------------------------------------|----------|----------------------------------|

A|----------------------------------------------|----------|----------------------------------|

E|----------------------------------------------|----------|----------------------------------|

©2015 by Fefe - Tron544

Sigueme en:

  • YouTube - White Circle
  • Facebook - White Circle
  • Instagram - White Circle
  • Twitter - White Circle
This site was designed with the
.com
website builder. Create your website today.
Start Now