~ ODD FUTURE ~

TABLATURAS ~ By Fefe - Tron544

 

Intro:

GUITAR (Rhythm):

e|--4--4---#--6--|
B|--4--4---#--6--|
G|--5--5---#--7--|
D|--6--6---#--8--|
A|--6--6---#--8--|
E|--4--4---#--6--|

e|--8-----6--8---4---4-4--4-4--4-4--4-4--4---1--|
B|--8-----6--8---4---4-4--4-4--4-4--4-4--4---1--|
G|--8-----7--8---5---5-5--5-5--5-5--5-5--5---1--|
D|--10----8--10--6---6-6--5-6--6-6--6-6--6---3--|
A|--10----8--10--6---6-6--6-6--6-6--6-6--6---3--|
E|--8-----6--8---4---4-4--4-4--4-4--4-4--4---1--|

GUITAR (Vocals):

e|---------------------------------------------------------------------------------------|
B|--8--8--8--8-------------------8---8---------11-/-13---11---8--9--11-------------------|
G|--------------10--10------------------10--8---------------------------10-/-12-\-10--8--|
D|----------------------10-10-10---------------------------------------------------------|
A|---------------------------------------------------------------------------------------|
E|---------------------------------------------------------------------------------------|


Verse/Estrofa:

GUITAR (Rhythm):

e|--4--#-#--#--#-#--#--#--#-#---4--#-#--#--#-#--#--#--#-#--|
B|--4--#-#--#--#-#--#--#--#-#---4--#-#--#--#-#--#--#--#-#--|
G|--5--#-#--#--#-#--#--#--#-#---5--#-#--#--#-#--#--#--#-#--|
D|--6--#-#--#--#-#--#--#--#-#---6--#-#--#--#-#--#--#--#-#--|
A|--6--#-#--#--#-#--#--#--#-#---6--#-#--#--#-#--#--#--#-#--|
E|--4--#-#--#--#-#--#--#--#-#---4--#-#--#--#-#--#--#--#-#--|

GUITAR (Vocals):

e|-------------|---------------------------------|
B|-------------|---------------------------------|
G|-------------|---------------------------------|
D|--8-8-8-8-8--|--8--8---------8------8-8-8-8-8--|
A|-------------|--------10--10-----10------------|
E|-------------|---------------------------------|

GUITAR (Rhythm):

e|--8---#-#--#--#-#--#--#--#-#---6--#-#--#--#-#--#--#--#-#--|
B|--8---#-#--#--#-#--#--#--#-#---6--#-#--#--#-#--#--#--#-#--|
G|--8---#-#--#--#-#--#--#--#-#---7--#-#--#--#-#--#--#--#-#--|
D|--10--#-#--#--#-#--#--#--#-#---8--#-#--#--#-#--#--#--#-#--|
A|--10--#-#--#--#-#--#--#--#-#---8--#-#--#--#-#--#--#--#-#--|
E|--8---#-#--#--#-#--#--#--#-#---6--#-#--#--#-#--#--#--#-#--|

GUITAR (Vocals):

e|---------------------------------------------------------------------|
B|---------------------------------------------------------------------|
G|---------------------------------------------------------------------|
D|--8--8---------8---8-8-8-8-8-8--8------------------------------------|
A|--------10--10---------------------10--10--8---10-10-10-10-10-10-10--|
E|---------------------------------------------------------------------|

GUITAR (Rhythm):

e|--4--#-#--#--#-#--#--#--#-#---4--#-#--#--#-#--#--#--#-#--|
B|--4--#-#--#--#-#--#--#--#-#---4--#-#--#--#-#--#--#--#-#--|
G|--5--#-#--#--#-#--#--#--#-#---5--#-#--#--#-#--#--#--#-#--|
D|--6--#-#--#--#-#--#--#--#-#---6--#-#--#--#-#--#--#--#-#--|
A|--6--#-#--#--#-#--#--#--#-#---6--#-#--#--#-#--#--#--#-#--|
E|--4--#-#--#--#-#--#--#--#-#---4--#-#--#--#-#--#--#--#-#--|

GUITAR (Vocals):

e|-----------------------------------------------------|
B|-----------------------------------------------------|
G|-----------------------------------------------------|
D|-----------------------------------------------------|
A|--10-p-8--8--6--6---6-8-10-10--8---6--6---6-8-10-10--|
E|-----------------------------------------------------|

GUITAR (Rhythm):

e|--8---#-#--#--#-#--#--#--#-#---6--#-#--#--#-#--#--#--#-#--|
B|--8---#-#--#--#-#--#--#--#-#---6--#-#--#--#-#--#--#--#-#--|
G|--8---#-#--#--#-#--#--#--#-#---7--#-#--#--#-#--#--#--#-#--|
D|--10--#-#--#--#-#--#--#--#-#---8--#-#--#--#-#--#--#--#-#--|
A|--10--#-#--#--#-#--#--#--#-#---8--#-#--#--#-#--#--#--#-#--|
E|--8---#-#--#--#-#--#--#--#-#---6--#-#--#--#-#--#--#--#-#--|

GUITAR (Vocals):

e|-------------------------------------------------|
B|-------------------------------------------------|
G|----------------------------------------8--8--8--|
D|-------------------------8-10--10--8-------------|
A|--8--8--6-6-6--6--8-/-10-------------------------|
E|-------------------------------------------------|

GUITAR (Rhythm):

e|---------4-#-#-4--4-4--4--#-#---------4-#-#-4--4-4--4--#-#--|
B|---------4-#-#-4--4-4--4--#-#---------4-#-#-4--4-4--4--#-#--|
G|---------5-#-#-5--5-5--5--#-#---------5-#-#-5--5-5--5--#-#--|
D|---------6-#-#-6--6-6--6--#-#---------6-#-#-6--6-6--6--#-#--|
A|---------6-#-#-6--6-6--6--#-#---------6-#-#-6--6-6--6--#-#--|
E|--2-/-4--4-#-#-4--4-4--4--#-#--2-/-4--4-#-#-4--4-4--4--#-#--|

GUITAR (Vocals):

e|--------------------------------------------------------|
B|---------------------------------------------------8-8--|
G|--8---8-----10-/-12---8-----8------8-----10-/-12--------|
D|--------10--------------10-----10-----10----------------|
A|--------------------------------------------------------|
E|--------------------------------------------------------|

GUITAR (Rhythm):

e|---------8--#-#-8---8--8---8---#-#---6--6-#-#-6--6-6--6--6--|
B|---------8--#-#-8---8--8---8---#-#---6--6-#-#-6--6-6--6--6--|
G|---------8--#-#-8---8--8---8---#-#---7--7-#-#-7--7-7--7--7--|
D|---------10-#-#-10--10-10--10--#-#---8--8-#-#-8--8-8--8--8--|
A|---------10-#-#-10--10-10--10--#-#---8--8-#-#-8--8-8--8--8--|
E|--6-/-8--8--#-#-8---8--8---8---#-#---6--6-#-#-6--6-6--6--6--|

GUITAR (Vocals):

e|---------------------------------------------------------|
B|--8------------------------------------------------------|
G|-----10--10--8--8------8------8-h-10------------8--8--8--|
D|-------------------10-----10----------10-\-8-------------|
A|---------------------------------------------------------|
E|---------------------------------------------------------|

e|--------------------------------------------------------------------------------------------------|
B|--------------------------------------------8-h-9--8---8-8-8-----------------8-b-r-b-r-b----------|
G|--8---8-----10-/-12---8--8--8----8-----8----------------------10--10--8---8----------------10-\-8-|
D|--------10--------------------10----10---10-------------------------------------------------------|
A|--------------------------------------------------------------------------------------------------|
E|--------------------------------------------------------------------------------------------------|


Chorus/Estribillo:

GUITAR (Rhythm):

e|--4-4----8----6---8--8----4-4----8----6---8--8---|
B|--4-4----8----6---8--8----4-4----8----6---8--8---|
G|--5-5----8----7---8--8----5-5----8----7---8--8---|
D|--6-6----10---8---10-10---6-6----10---8---10-10--|
A|--6-6----10---8---10-10---6-6----10---8---10-10--|
E|--4-4----8----6---8--8----4-4----8----6---8--8---|

GUITAR (Vocals):

e|-----8-----------------------------------------------------------|
B|--11------8-------------------8------------------------------11--|
G|-------------10--8---------------10-8----8--7-----7-8------------|
D|--------------------10--10-10------------------10------10-10-----|
A|-----------------------------------------------------------------|
E|-----------------------------------------------------------------|

GUITAR (Rhythm):

e|--4-4----8----6---8--8----1--|
B|--4-4----8----6---8--8----1--|
G|--5-5----8----7---8--8----1--|
D|--6-6----10---8---10-10---3--|
A|--6-6----10---8---10-10---3--|
E|--4-4----8----6---8--8----1--|

GUITAR (Vocals):

e|--8-------------------------------------------------------------------------|
B|-------8--------------------11-/-13---11---8--9--11-------------------------|
G|----------10--8-8------------------------------------10-/-12-\-10--8--------|
D|------------------10--10-10---------------------------------------------10--|
A|----------------------------------------------------------------------------|
E|----------------------------------------------------------------------------|

GUITAR (Rhythm):

e|--4-4----8----6---8--8----4-4----8----6---8--8---|
B|--4-4----8----6---8--8----4-4----8----6---8--8---|
G|--5-5----8----7---8--8----5-5----8----7---8--8---|
D|--6-6----10---8---10-10---6-6----10---8---10-10--|
A|--6-6----10---8---10-10---6-6----10---8---10-10--|
E|--4-4----8----6---8--8----4-4----8----6---8--8---|

GUITAR (Vocals):

e|-----8---------------------------------------------------------|
B|--11------8------------------8---------8-------------------11--|
G|-------------10--8--8----8-8----10-8------10--8-8-8----8-8-----|
D|----------------------10----------------------------10---------|
A|---------------------------------------------------------------|
E|---------------------------------------------------------------|

GUITAR (Rhythm):

e|--4-4----8----6---8--8----1------1-1-1-1-1-1-1-1--|
B|--4-4----8----6---8--8----1------1-1-1-1-1-1-1-1--|
G|--5-5----8----7---8--8----1------1-1-1-1-1-1-1-1--|
D|--6-6----10---8---10-10---3------3-3-3-3-3-3-3-3--|
A|--6-6----10---8---10-10---3------3-3-3-3-3-3-3-3--|
E|--4-4----8----6---8--8----1------1-1-1-1-1-1-1-1--|

GUITAR (Vocals):

e|--8------------------------------------------------------------------|
B|-------8-8-----------------11-/-13---11---8--9--11-------------------|
G|-----------10--8--8----8-8--------------------------10-/-12-\-10--8--|
D|--------------------10-----------------------------------------------|
A|---------------------------------------------------------------------|
E|---------------------------------------------------------------------|

GUITAR (Rhythm):

e|--4--4--4--4-4-4-4-4--4--4-4--4--4--4--4-4-4-4-4--4--4-4--|
B|--4--4--4--4-4-4-4-4--4--4-4--4--4--4--4-4-4-4-4--4--4-4--|
G|--5--5--5--5-5-5-5-5--5--5-5--5--5--5--5-5-5-5-5--5--5-5--|
D|--6--6--6--6-6-6-6-6--6--6-6--6--6--6--6-6-6-6-6--6--6-6--|
A|--6--6--6--6-6-6-6-6--6--6-6--6--6--6--6-6-6-6-6--6--6-6--|
E|--4--4--4--4-4-4-4-4--4--4-4--4--4--4--4-4-4-4-4--4--4-4--|

GUITAR (Vocals):

e|---------------------------------------------|
B|--8--8--8--8-------------------8---8---------|
G|--------------10--10------------------10--8--|
D|----------------------10-10-10---------------|
A|---------------------------------------------|
E|---------------------------------------------|

GUITAR (Lead 1):

e|----------------------------------6--|
B|--4------------4---4--------------6--|
G|-----5--4-h-5------5----3--5-/-7-----|
D|-------------------------------------|
A|-------------------------------------|
E|-------------------------------------|

GUITAR (Lead 2):

e|---------------------------------------------------------|
B|---------4--6-b-6--4-----6--6------------6-b-6--4-----6--|
G|--3-/-5---------------5--------3-/-5--3------------5-----|
D|---------------------------------------------------------|
A|---------------------------------------------------------|
E|---------------------------------------------------------|

GUITAR (Rhythm):

e|--3--3--3--3-3-3-3-3--3--3-3--3--3--3--3-3-3-3-3--3--3-3--|
B|--3--3--3--3-3-3-3-3--3--3-3--4--4--4--4-4-4-4-4--4--4-4--|
G|--3--3--3--3-3-3-3-3--3--3-3--5--5--5--5-5-5-5-5--5--5-5--|
D|--5--5--5--5-5-5-5-5--5--5-5--5--5--5--5-5-5-5-5--5--5-5--|
A|--5--5--5--5-5-5-5-5--5--5-5--3--3--3--3-3-3-3-3--3--3-3--|
E|--3--3--3--3-3-3-3-3--3--3-3------------------------------|

GUITAR (Vocals):

e|------------------------------------------------------|
B|------------------------------------------------------|
G|--10--8-10-8-10-8-10-10-10-10-10-p-8-10-10-10--8------|
D|--------------------------------------------------10--|
A|------------------------------------------------------|
E|------------------------------------------------------|

GUITAR (Lead 1):

e|-------------6-h-8--8---------------6--|
B|-------------6-h-8--8---------4-h-6-6--|
G|--3-h-5-/-7-------------3-h-5----------|
D|---------------------------------------|
A|---------------------------------------|
E|---------------------------------------|

GUITAR (Lead 2):

e|------------------------------------------------------|
B|---------4--6-b-6--4-----6--6---------4--6-b-6--4-----|
G|--3-/-5---------------5--------3-/-5---------------5--|
D|------------------------------------------------------|
A|------------------------------------------------------|
E|------------------------------------------------------|

GUITAR (Rhythm):

e|--4--4--4--4-4-4-4-4--4--4-4--6--6--6--6-6-6-6-6--6--1--|
B|--4--4--4--4-4-4-4-4--4--4-4--6--6--6--6-6-6-6-6--6--1--|
G|--5--5--5--5-5-5-5-5--5--5-5--7--7--7--7-7-7-7-7--7--1--|
D|--6--6--6--6-6-6-6-6--6--6-6--8--8--8--8-8-8-8-8--8--3--|
A|--6--6--6--6-6-6-6-6--6--6-6--8--8--8--8-8-8-8-8--8--3--|
E|--4--4--4--4-4-4-4-4--4--4-4--6--6--6--6-6-6-6-6--6--1--|

GUITAR (Vocals):

e|--------------------------------------------------------------------------------|
B|--8---8-----------------8---8---------11-/-13---11---8--9--11-------------------|
G|---------10-10-10-8-8-8--------10--8---------------------------10-/-12-\-10--8--|
D|--------------------------------------------------------------------------------|
A|--------------------------------------------------------------------------------|
E|--------------------------------------------------------------------------------|

GUITAR (Lead 1):

e|----------------------------------1--|
B|--4------------4---4--------------1--|
G|-----5--4-h-5------5----3--5-/-7--1--|
D|----------------------------------3--|
A|----------------------------------3--|
E|----------------------------------1--|

GUITAR (Lead 2):

e|------------------------------------------------------1--|
B|---------4--6-b-6--4-----6--6---------4--6-b-6--4-----1--|
G|--3-/-5---------------5--------3-/-5---------------5--1--|
D|------------------------------------------------------3--|
A|------------------------------------------------------3--|
E|------------------------------------------------------1--|

 

 

ODD FUTURE - Tron544
00:00 / 00:00

©2019 by Fefe - Tron544

Sigueme en:

  • YouTube - White Circle
  • Facebook - White Circle
  • Instagram - White Circle
  • Twitter - White Circle
This site was designed with the
.com
website builder. Create your website today.
Start Now