NYAN NYAN SONG (ROCK VERSION)

MACROSS FRONTIER

TABS ~ By Fefe (Tron544)

 

Intro:

 

GUITAR 2:

 

e|-----------------------------------|

B|--11------11---------------11------|

G|------12------12---10--12------10--|

D|-----------------------------------|

A|-----------------------------------|

E|-----------------------------------|

 

e|----------------------------------11--10-----------|

B|--------------------------11--13----------11-/-13--|

G|----------10--12--10--12---------------------------|

D|--13--13-------------------------------------------|

A|---------------------------------------------------|

E|---------------------------------------------------|

 

GUITAR 1:

 

e|---------------------------------------------------|---------------------------------------------------|

B|---------------------------------------------------|---------------------------------------------------|

G|---------------------------------------------------|---------------------------------------------------|

D|--6--x--x--x--x--x--x--x---8--x--x--x--x--x--x--x--|--5--x--x--x--x--x--x--x---6--x--x--x--x--x--x--x--|

A|--6--x--x--x--x--x--x--x---8--x--x--x--x--x--x--x--|--5--x--x--x--x--x--x--x---6--x--x--x--x--x--x--x--|

E|--4--x--x--x--x--x--x--x---6--x--x--x--x--x--x--x--|--3--x--x--x--x--x--x--x---4--x--x--x--x--x--x--x--|

 

GUITAR 2:

 

e|-----------------------------------|----------------------------------11--10-----------|

B|--11------11---------------11------|--------------------------11--13----------11-/-13--|

G|------12------12---10--12------10--|----------10--12--10--12---------------------------|

D|-----------------------------------|--13--13-------------------------------------------|

A|-----------------------------------|---------------------------------------------------|

E|-----------------------------------|---------------------------------------------------|

 

GUITAR 1:

 

e|---------------------------------------------------|----------------------------------------------------|

B|---------------------------------------------------|----------------------------------------------------|

G|---------------------------------------------------|----------------------------------------------------|

D|--6--x--x--x--x--x--x--x---8--x--x--x--x--x--x--x--|--5--x--x--x--x--x--x--x---10--x--x--x--8--x--x--x--|

A|--6--x--x--x--x--x--x--x---8--x--x--x--x--x--x--x--|--5--x--x--x--x--x--x--x---10--x--x--x--8--x--x--x--|

E|--4--x--x--x--x--x--x--x---6--x--x--x--x--x--x--x--|--3--x--x--x--x--x--x--x---8---x--x--x--6--x--x--x--|

 

GUITAR 2:

 

e|-----------------------------------|----------------------------------11--10-----------|

B|--11------11---------------11------|--------------------------11--13----------11-/-13--|

G|------12------12---10--12------10--|----------10--12--10--12---------------------------|

D|-----------------------------------|--13--13-------------------------------------------|

A|-----------------------------------|---------------------------------------------------|

E|-----------------------------------|---------------------------------------------------|

Nyan Nyan Song (Rock Version) - Tron544
00:00 / 00:00
DONATE%20BUTTON%20(EN)_edited.png

Chorus/Estribillo:

 

GUITAR 1:

 

e|------------|------------|------------|-----------------|

B|------------|------------|------------|-----------------|

G|------------|------------|------------|-----------------|

D|--6------8--|--5------6--|--6------8--|--5------10---8--|

A|--6------8--|--5------6--|--6------8--|--5------10---8--|

E|--4------6--|--3------4--|--4------6--|--3------8----6--|

 

GUITAR 2: x2

 

e|-----------------------------------|----------------------------------11--10-----------|

B|--11------11---------------11------|--------------------------11--13----------11-/-13--|

G|------12------12---10--12------10--|----------10--12--10--12---------------------------|

D|-----------------------------------|--13--13-------------------------------------------|

A|-----------------------------------|---------------------------------------------------|

E|-----------------------------------|---------------------------------------------------|

 

 

Verse/Estrofa:

 

GUITAR 1:

 

e|----------------------------------------------------|---------------------------------------------------|

B|----------------------------------------------------|---------------------------------------------------|

G|----------------------------------------------------|---------------------------------------------------|

D|--6--x--x--x--x--x--x--x---8--x--x--x---x--x--x--x--|--5--x--x--x--x--x--x--x---6--x--x--x--x--x--x--x--|

A|--6--x--x--x--x--x--x--x---8--x--x--x---x--x--x--x--|--5--x--x--x--x--x--x--x---6--x--x--x--x--x--x--x--|

E|--4--x--x--x--x--x--x--x---6--x--x--x---x--x--x--x--|--3--x--x--x--x--x--x--x---4--x--x--x--x--x--x--x--|

 

GUITAR 2:

 

e|------------------------------|------------------------------------|

B|--11--10--11--10--------------|------------------------------------|

G|------------------------------|--10----10--12--10------------------|

D|----------------------12--13--|--------------------10----------10--|

A|------------------------------|----------------------------13------|

E|------------------------------|------------------------------------|

 

GUITAR 1:

 

e|---------------------------------------------------|----------------------------------------------------|

B|---------------------------------------------------|----------------------------------------------------|

G|---------------------------------------------------|----------------------------------------------------|

D|--6--x--x--x--x--x--x--x---8--x--x--x--x--x--x--x--|--5--x--x--x--x--x--x--x---10--x--x--x--8--x--x--x--|

A|--6--x--x--x--x--x--x--x---8--x--x--x--x--x--x--x--|--5--x--x--x--x--x--x--x---10--x--x--x--8--x--x--x--|

E|--4--x--x--x--x--x--x--x---6--x--x--x--x--x--x--x--|--3--x--x--x--x--x--x--x---8---x--x--x--6--x--x--x--|

 

GUITAR 2:

 

e|----------------------------------|--------------------------------------|--------------|

B|----------------------------------|--------------------------------------|--------------|

G|--------------10--10--------------|--------------12--10------------------|--------------|

D|--12--12--12------------------10--|--12--12--12----------12--------------|--10--12------|

A|--------------------------13------|------------------------------10--13--|----------13--|

E|----------------------------------|--------------------------------------|--------------|

 

GUITAR 1:

 

e|---------------------------------------------------|---------------------------------------------------|

B|---------------------------------------------------|---------------------------------------------------|

G|---------------------------------------------------|---------------------------------------------------|

D|--6--x--x--x--x--x--x--x---6--x--x--x--x--x--x--x--|--6--x--x--x--x--x--x--x---6--x--x--x--x--x--x--x--|

A|--6--x--x--x--x--x--x--x---6--x--x--x--x--x--x--x--|--6--x--x--x--x--x--x--x---6--x--x--x--x--x--x--x--|

E|--4--x--x--x--x--x--x--x---4--x--x--x--x--x--x--x--|--4--x--x--x--x--x--x--x---4--x--x--x--x--x--x--x--|

 

 

Chorus/Estribillo: x2

 

GUITAR 1:

 

e|------------|------------|------------|-----------------|

B|------------|------------|------------|-----------------|

G|------------|------------|------------|-----------------|

D|--6------8--|--5------6--|--6------8--|--5------10---8--|

A|--6------8--|--5------6--|--6------8--|--5------10---8--|

E|--4------6--|--3------4--|--4------6--|--3------8----6--|

 

GUITAR 2: x2

 

e|-----------------------------------|----------------------------------11--10-----------|

B|--11------11---------------11------|--------------------------11--13----------11-/-13--|

G|------12------12---10--12------10--|----------10--12--10--12---------------------------|

D|-----------------------------------|--13--13-------------------------------------------|

A|-----------------------------------|---------------------------------------------------|

E|-----------------------------------|---------------------------------------------------|

 

 

Outro:

 

e|---------------------------------------------------|---------------------------------------------------|

B|---------------------------------------------------|---------------------------------------------------|

G|---------------------------------------------------|---------------------------------------------------|

D|--6--x--x--x--x--x--x--x---8--x--x--x--x--x--x--x--|--5--x--x--x--x--x--x--x---6--x--x--x--x--x--x--x--|

A|--6--x--x--x--x--x--x--x---8--x--x--x--x--x--x--x--|--5--x--x--x--x--x--x--x---6--x--x--x--x--x--x--x--|

E|--4--x--x--x--x--x--x--x---6--x--x--x--x--x--x--x--|--3--x--x--x--x--x--x--x---4--x--x--x--x--x--x--x--|

 

e|---------------------------------------------------|

B|---------------------------------------------------|

G|---------------------------------------------------|

D|--6--x--x--x--x--x--x--x---8--x--x--x--x--x--x--x--|

A|--6--x--x--x--x--x--x--x---8--x--x--x--x--x--x--x--|

E|--4--x--x--x--x--x--x--x---6--x--x--x--x--x--x--x--|

 

e|----------------------------------------------------|-----|

B|----------------------------------------------------|-----|

G|----------------------------------------------------|-----|

D|--5--x--x--x--x--x--x--x---10--x--x--x--8--x--x--x--|--6--|

A|--5--x--x--x--x--x--x--x---10--x--x--x--8--x--x--x--|--6--|

E|--3--x--x--x--x--x--x--x---8---x--x--x--6--x--x--x--|--4--|

©2015 by Fefe - Tron544

Sigueme en:

  • YouTube - White Circle
  • Facebook - White Circle
  • Instagram - White Circle
  • Twitter - White Circle
This site was designed with the
.com
website builder. Create your website today.
Start Now