NO, THANK YOU!

K-ON!!

TABS ~ By Fefe (Tron544)

 

Intro:

e|--------------------------------------------------|

B|--12--12--12--12--12--12----------12----------12--|

G|--------------------------12--14------14--12------|

D|--------------------------------------------------|

A|--------------------------------------------------|

E|--------------------------------------------------|

e|--------------------------------------------------|

B|--12--12--12--12--12--12----------12----------12--|

G|--------------------------12--14------14--12------|

D|--------------------------------------------------|

A|--------------------------------------------------|

E|--------------------------------------------------|

 

  /~~~~~~~~~~~~~~~~~~~~~~~~~~~~~~( REPEAT x2 / REPITE x2 )~~~~~~~~~~~~~~~~~~~~~~~\

e|--------------------------------------------------------------------------------|

B|--------------------------------------------------------------------------------|

G|-------------------------------------------------------------------------5---7--|

D|--2--2---7--5--5---9--7--7---10--9--9---12--10--10---7--9--9---5--7--7---5---7--|

A|--2--2-------------------------------------------------------------------3---5--|

E|--0--0--------------------------------------------------------------------------|

 

 

Verse/Estrofa: x2

 

GUITAR 1:

 

e|---------------------------------------------------------------------------------------------|

B|---------------------------------------------------------------------------------------------|

G|--9--9--x--x--9--9--x--x--9--9--x--x--9--9--x--x--7--7--x--x--7--x--x------------------------|

D|--9--9--x--x--9--9--x--x--9--9--x--x--9--9--x--x--7--7--x--x--7--x--x--7--7------------------|

A|--7--7--x--x--7--7--x--x--7--7--x--x--7--7--x--x--5--5--x--x--5--x--x--7--7---6--7--6--7--6--|

E|-----------------------------------------------------------------------5--5------------------|

 

GUITAR 2:

 

e|-----------------------------------------|

B|-----------------------------------------|

G|-----------6--7--9--7--6-----------6--6--|

D|--9--9--9-----------------9--7--9--------|

A|-----------------------------------------|

E|-----------------------------------------|

 

GUITAR 1:

 

e|---------------------------------------------------------------------------------------------|

B|---------------------------------------------------------------------------------------------|

G|--9--9--x--x--9--9--x--x--9--9--x--x--9--9--x--x--7--7--x--x--7--x--x------------------------|

D|--9--9--x--x--9--9--x--x--9--9--x--x--9--9--x--x--7--7--x--x--7--x--x--7--7------------------|

A|--7--7--x--x--7--7--x--x--7--7--x--x--7--7--x--x--5--5--x--x--5--x--x--7--7---6--7--6--7--6--|

E|-----------------------------------------------------------------------5--5------------------|

 

GUITAR 2:

 

e|-----------------------------------|

B|-----------------------------------|

G|-----------6--7--9--7--6-----7--6--|

D|--9--9--9-----------------9--------|

A|-----------------------------------|

E|-----------------------------------|

NO, Thank You! - Tron544
00:00 / 00:00
DONATE%20BUTTON%20(EN)_edited.png

Pre-Chorus/Pre-Estribillo:

 

GUITAR 1:

 

e|-------------------------------------------|-------------------------------------------|

B|----------------7--8--7--8--7--------------|----------------7--8--7--8--7--------------|

G|--9----------------------------9--7--6--9--|--9----------------------------9--7--6--9--|

D|--9------7---------------------------------|--9------7---------------------------------|

A|--7------7---------------------------------|--7------7---------------------------------|

E|---------5---------------------------------|---------5---------------------------------|

 

GUITAR 2:

 

e|-------------------------------------------|-------------------------------------------|

B|--------8-----8-----8-----8--10--10--------|-----7--8-----8-----8-----8--10--10--------|

G|--7--9-----9-----9-----9-------------9--9--|--9--------9-----9-----9-------------9--9--|

D|-------------------------------------------|-------------------------------------------|

A|-------------------------------------------|-------------------------------------------|

E|-------------------------------------------|-------------------------------------------|

 

GUITAR 1:

 

e|------------|-----------------------------|

B|------------|-----------------------------|

G|--9---------|---------4------5------7--7--|

D|--9------5--|--7------4------5------7--7--|

A|--7------5--|--7------2------3------5--5--|

E|---------3--|--5--------------------------|

 

GUITAR 2:

 

e|---------------------------------7---------|-----8--7------------------|

B|--------8-----8-----8-----8--10-----8--8---|--8--------10--8--8--7--8--|

G|--7--9-----9-----9-----9-------------------|---------------------------|

D|-------------------------------------------|---------------------------|

A|-------------------------------------------|---------------------------|

E|-------------------------------------------|---------------------------|

 

 

Chorus/Estribillo:

 

GUITAR 1:

 

e|--------------------------|-------------------------------------------|

B|--------------------------|-------------------------------------------|

G|--5------7-------------4--|--5------7---------------------------4--4--|

D|--5------7------5------4--|--5------7------2--2---4--4---5--5---4--4--|

A|--3------5------5------2--|--3------5------2--2---4--4---5--5---2--2--|

E|----------------3---------|----------------0--0---2--2---3--3---------|

 

GUITAR 2:

  /~~~~~~~~~~~~( REPEAT x2 / REPITE x2 )~~~~~~~~~~~\

e|--------------------------------------------------|

B|--12--12--12--12--12--12----------12----------12--|

G|--------------------------12--14------14--12------|

D|--------------------------------------------------|

A|--------------------------------------------------|

E|--------------------------------------------------|

 

GUITAR 1:

 

e|--------------------------|

B|--------------------------|

G|--5------7-------------9--|

D|--5------7------9------9--|

A|--3------5------9------7--|

E|----------------7---------|

 

GUITAR 2:

 

e|----------------------------------------------------------------------|

B|--12--12--12--12--12--12----------12--------------12------------------|

G|--------------------------12--14------14--12--14------14--12--12--12--|

D|----------------------------------------------------------------------|

A|----------------------------------------------------------------------|

E|----------------------------------------------------------------------|

 

GUITAR 1:

 

e|-----------------|

B|-----------------|

G|-----------------|

D|----7------9--9--|

A|----7------9--9--|

E|----5------7--7--|

 

GUITAR 2:

 

e|------------------------------------------|

B|--13--12----------------------------------|

G|----------12--12--11--11--11--12--11------|

D|--------------------------------------14--|

A|------------------------------------------|

E|------------------------------------------|

 

 

Outro:

 

e|----------------------------------------------------------------------------------|

B|----------------------------------------------------------------------------------|

G|---------------------------------------------------------------------------5---7--|

D|--2---2----7--5--5---9--7--7---10--9--9---12--10--10---7--9--9---5--7--7---5---7--|

A|--2---2--------------------------------------------------------------------3---5--|

E|--0---0---------------------------------------------------------------------------|

©2015 by Fefe - Tron544

Sigueme en:

  • YouTube - White Circle
  • Facebook - White Circle
  • Instagram - White Circle
  • Twitter - White Circle
This site was designed with the
.com
website builder. Create your website today.
Start Now