~ NO PAIN, NO GAME ~

TABLATURAS ~ By Fefe - Tron544

 

Intro:

 

GUITAR 1:

 

e|-------------------------------------------------|

B|-------------------------------------------------|

G|--6---x--x--x---x--x--x---8---x--x--x---x--x--x--|

D|--6---x--x--x---x--x--x---8---x--x--x---x--x--x--|

A|--4---x--x--x---x--x--x---6---x--x--x---x--x--x--|

D|-------------------------------------------------|

 

GUITAR 2:

 

e|----------------------------------------------|

B|----------------------------------------------|

G|--------------13--12--13--12------------------|

D|--10--11--13------------------13--10--10--11--|

A|----------------------------------------------|

D|----------------------------------------------|

 

GUITAR 1:

 

e|--------------------------------------------------|

B|--------------------------------------------------|

G|--10---x--x--x---x--x--x---3---x--x--x---x--x--x--|

D|--10---x--x--x---x--x--x---3---x--x--x---x--x--x--|

A|--8----x--x--x---x--x--x---1---x--x--x---x--x--x--|

D|--------------------------------------------------|

 

GUITAR 2:

 

e|----------------------------------|

B|------------------11------11--13--|

G|------13--12--13------13----------|

D|--13------------------------------|

A|----------------------------------|

D|----------------------------------|

 

GUITAR 1:

 

e|----------------------------------------------------|--------------------------------------------------------|

B|----------------------------------------------------|--------------------------------------------------------|

G|--3---x--x--x---x--x--x---(5)-x--x--x---x--x--x--x--|--(7)-x--x--x---x--x--x--x---(9)--x--x--x---x--x--x--x--|

D|--3---x--x--x---x--x--x---(5)-x--x--x---x--x--x--x--|--(8)-x--x--x---x--x--x--x---(10)-x--x--x---x--x--x--x--|

A|--1---x--x--x---x--x--x---(3)-x--x--x---x--x--x--x--|--(5)-x--x--x---x--x--x--x---(7)--x--x--x---x--x--x--x--|

D|----------------------------------------------------|--------------------------------------------------------|

 

GUITAR 2:

 

e|-----------------------------|----------|

B|--13------------------13-----|--11------|

G|------10--13--------------13-|------13--|

D|------------------13---------|----------|

A|-----------------------------|----------|

D|-----------------------------|----------|

 

GUITAR 1:

 

e|---------------|

B|---------------|

G|--3----5----6--|

D|--3----5----6--|

A|--1----3----4--|

D|---------------|

 

GUITAR 2:

 

e|------------------------------|------------------------------|

B|------------------------------|------13--11--13--11----------|

G|--10--12--13--13--12------10--|----------------------13--13--|

D|----------------------13------|--13--------------------------|

A|------------------------------|------------------------------|

D|------------------------------|------------------------------|

 

GUITAR 1:

 

  /~~~~~~~~~~~~~~~~~~~~~~~~~REPEAT~x3~~/~~REPITE~x3~~~~~~~~~~~~~~~~~~~~~~~~~\

e|-------------------------------------|-------------------------------------|

B|-------------------------------------|-------------------------------------|

G|-------------------------------------|-------------------------------------|

D|--1--3--3---1--1--3--3---1--1--3--6--|--1--3--3---1--1--3--3---1--1--3--6--|

A|--1--3--3---1--1--3--3---1--1--3--6--|--1--3--3---1--1--3--3---1--1--3--6--|

D|--1--3--3---1--1--3--3---1--1--3--6--|--1--3--3---1--1--3--3---1--1--3--6--|

 

 

Verse/Estrofa:

 

GUITAR 1:

 

e|---------------------------------------------|---------------------------------------------|

B|---------------------------------------------|---------------------------------------------|

G|---------------------------------------------|---------------------------------------------|

D|--(1)--(3)-x---(1)-x--(3)-x---(1)-x--(3)--6--|--(1)--(3)-x---(1)-x--(3)-x---(1)-x--(3)--6--|

A|--(1)--(3)-x---(1)-x--(3)-x---(1)-x--(3)--6--|--(1)--(3)-x---(1)-x--(3)-x---(1)-x--(3)--6--|

D|--(1)--(3)-x---(1)-x--(3)-x---(1)-x--(3)--6--|--(1)--(3)-x---(1)-x--(3)-x---(1)-x--(3)--6--|

 

GUITAR 2:

 

e|-----------------------------------|----------------------------------|

B|-----------------------------------|----------------------------------|

G|--8--10--10--10-p-8----------------|------------------------8---------|

D|---------------------10--8--10--8--|--7--7--7--7--7--8--10-----10--8--|

A|-----------------------------------|----------------------------------|

D|-----------------------------------|----------------------------------|

 

GUITAR 1:

 

e|---------------------------------------------|--------------------------------------------|

B|---------------------------------------------|--------------------------------------------|

G|---------------------------------------------|--------------------------------------------|

D|--(1)--(3)-x---(1)-x--(3)-x---(1)-x--(3)--6--|--(1)--(3)-x---(1)-x--(3)-x---(1)-x--(3)-x--|

A|--(1)--(3)-x---(1)-x--(3)-x---(1)-x--(3)--6--|--(1)--(3)-x---(1)-x--(3)-x---(1)-x--(3)-x--|

D|--(1)--(3)-x---(1)-x--(3)-x---(1)-x--(3)--6--|--(1)--(3)-x---(1)-x--(3)-x---(1)-x--(3)-x--|

 

GUITAR 2:

 

e|-----------------------------------|------------------------------------------------|

B|-----------------------------------|-------------------------------------11--9------|

G|--8--10--10--10-p-8----------------|--8--10--10--10--10--10--10--10--10---------10--|

D|---------------------10--8--10--8--|------------------------------------------------|

A|-----------------------------------|------------------------------------------------|

D|-----------------------------------|------------------------------------------------|

 

 

Pre-Chorus/Pre-Estribillo:

 

GUITAR 1:

 

e|------------------------|------------------------|

B|------------------------|------------------------|

G|--6--6--6---------------|------------------------|

D|--6--6--6------1--1--1--|--3--3--3------6--6--6--|

A|--4--4--4------1--1--1--|--3--3--3------6--6--6--|

D|---------------1--1--1--|--3--3--3------6--6--6--|

 

GUITAR 2:

 

e|-------------------|---------------------------8---------|

B|-------------------|--11--9--9--9--11--9----------11--9--|

G|--8----10--8----8--|----------------------8--------------|

D|-------------------|-------------------------------------|

A|-------------------|-------------------------------------|

D|-------------------|-------------------------------------|

 

GUITAR 1:

 

e|-----------------------------------------------------------------|

B|-----------------------------------------------------------------|

G|--(5)-x--x--x---x--x--x--x-(6)-x--x--x---x--x--x--x--------------|

D|--(5)-x--x--x---x--x--x--x-(6)-x--x--x---x--x--x--x---1---1---1--|

A|--(3)-x--x--x---x--x--x--x-(4)-x--x--x---x--x--x--x---1---1---1--|

D|------------------------------------------------------1---1---1--|

 

GUITAR 2:

 

e|----------------------------------------|

B|-------9--11--9---9--9--11--9-h-11--11--|

G|--8-------------------------------------|

D|----------------------------------------|

A|----------------------------------------|

D|----------------------------------------|

 

 

Chorus/Estribillo:

 

GUITAR 1:

 

e|------------|------------|

B|------------|------------|

G|--6---------|------------|

D|--6------1--|--3------3--|

A|--4------1--|--3------3--|

D|---------1--|--3------3--|

 

GUITAR 2:

 

e|---------------------------------------------|----------------------------------|

B|---------------------------------------------|------------------11--------------|

G|--------------13--12--13--12-----------------|------13--12--13------13--12------|

D|--10--11--13------------------13--10--10--11-|--13--------------------------13--|

A|---------------------------------------------|----------------------------------|

D|---------------------------------------------|----------------------------------|

 

GUITAR 1:

 

e|------------|---------------|

B|------------|---------------|

G|--6---------|---------------|

D|--6------1--|--3--3--1---3--|

A|--4------1--|--3--3--1---3--|

D|---------1--|--3--3--1---3--|

 

GUITAR 2: 3

 

e|-------------------------------------|-------------|

B|----------------------11--13--14--13-|-11----------|

G|----------13--12--13-----------------|-----13--13--|

D|--13--13-----------------------------|-------------|

A|-------------------------------------|-------------|

D|-------------------------------------|-------------|

 

GUITAR 1:

 

e|------------|------------|

B|------------|------------|

G|--6---------|------------|

D|--6------1--|--3------3--|

A|--4------1--|--3------3--|

D|---------1--|--3------3--|

 

GUITAR 2:

 

e|---------------------------------------------|----------------------------------|

B|---------------------------------------------|------------------11------11--13--|

G|--------------13--12--13--12-----------------|------13--12--13------13----------|

D|--10--11--13------------------13--10--10--11-|--13------------------------------|

A|---------------------------------------------|----------------------------------|

D|---------------------------------------------|----------------------------------|

 

GUITAR 1:

 

e|----------------------------------------------------|--------------------------------------------------------|

B|----------------------------------------------------|--------------------------------------------------------|

G|--3---x--x--x---x--x--x---(5)-x--x--x---x--x--x--x--|--(7)-x--x--x---x--x--x--x---(9)--x--x--x---x--x--x--x--|

D|--3---x--x--x---x--x--x---(5)-x--x--x---x--x--x--x--|--(8)-x--x--x---x--x--x--x---(10)-x--x--x---x--x--x--x--|

A|--1---x--x--x---x--x--x---(3)-x--x--x---x--x--x--x--|--(5)-x--x--x---x--x--x--x---(7)--x--x--x---x--x--x--x--|

D|----------------------------------------------------|--------------------------------------------------------|

 

GUITAR 2:

 

e|-----------------------------|----------|

B|--13------------------13-----|--11------|

G|------10--13--------------13-|------13--|

D|------------------13---------|----------|

A|-----------------------------|----------|

D|-----------------------------|----------|

 

GUITAR 1:

 

e|---------------|

B|---------------|

G|--3----5----6--|

D|--3----5----6--|

A|--1----3----4--|

D|---------------|

 

GUITAR 2:

 

e|------------------------------|------------------------------|

B|------------------------------|------13--11--13--11----------|

G|--10--12--13--13--12------10--|----------------------13--13--|

D|----------------------13------|--13--------------------------|

A|------------------------------|------------------------------|

D|------------------------------|------------------------------|

 

 

Outro:

 

e|-------------------------------------|-------------------------------------|

B|-------------------------------------|-------------------------------------|

G|-------------------------------------|-------------------------------------|

D|--1--3--3---1--1--3--3---1--1--3--6--|--1--3--3---1--1--3--3---1--1--3--6--|

A|--1--3--3---1--1--3--3---1--1--3--6--|--1--3--3---1--1--3--3---1--1--3--6--|

D|--1--3--3---1--1--3--3---1--1--3--6--|--1--3--3---1--1--3--3---1--1--3--6--|

 

e|-------------------------------------|--------------------------------------|

B|-------------------------------------|--------------------------------------|

G|-------------------------------------|--------------------------------------|

D|--1--3--3---1--1--3--3---1--1--3--6--|--1--3--3---1--3--3---(1)-x--x--x--x--|

A|--1--3--3---1--1--3--3---1--1--3--6--|--1--3--3---1--3--3---(1)-x--x--x--x--|

D|--1--3--3---1--1--3--3---1--1--3--6--|--1--3--3---1--3--3---(1)-x--x--x--x--|

 

 

No Pain, No Game - Tron544
00:00 / 00:00

©2019 by Fefe - Tron544

Sigueme en:

  • YouTube - White Circle
  • Facebook - White Circle
  • Instagram - White Circle
  • Twitter - White Circle
This site was designed with the
.com
website builder. Create your website today.
Start Now