~ N. SANITY BEACH ~

TABLATURAS ~ By Fefe - Tron544

Intro:

GUITAR (Tremolo Picking):

e|------------------------------------------------------------|
B|------------------------------------------------------------|
G|------------------------------------------------------------|
D|------------------------------------------------------------|
A|--1-2-3-4-5-6-7-8-9-10-11-12-13-14-15-16-17-18-19-20-21-22--|
E|------------------------------------------------------------|

BASS:

G|--------------------------------------------------|
D|--7--6--5--4--------------7--6--5--4--------------|
A|--------------8--7--6--5--------------8--7--6--5--|
E|--------------------------------------------------|


Part A:

GUITAR (Lead):

  /~~~~~~~~~~~~~~~~~~~( REPEAT x2 )~~~~~~~~~~~~~~~~~~~~\
e|------------------------------------------------------|
B|-------------------13---11----------------------------|
G|-----------10--12------------12---10--11--12--11--12--|
D|--10--10----------------------------------------------|
A|------------------------------------------------------|
E|------------------------------------------------------|

GUITAR (Harmony):

  /~~~~~~~~~~~( REPEAT x2 )~~~~~~~~~~~\
e|-------------------------------------|
B|-------------------------------------|
G|-------------------------------------|
D|----------------3--4--5--4--5--------|
A|--3--3-------------------------3--3--|
E|-------------------------------------|

BASS:

  /~~~~( REPEAT x2 )~~~\
G|----------------------|
D|----------------------|
A|--3--3----------3--3--|
E|----------------------|

GUITAR (Lead):

e|------------------------------------------------------------------|
B|------------------------------------------------------------------|
G|--10--10----------10--12--12--12----------10--10------10--12--10--|
D|------------------------------------------------------------------|
A|------------------------------------------------------------------|
E|------------------------------------------------------------------|

GUITAR (Harmony):

e|------------------------------------------|
B|------------------------------------------|
G|------------------------------------------|
D|--3--3----------3--5--5--5----------3--3--|
A|------------------------------------------|
E|------------------------------------------|

BASS:

G|-------------------------------------------------------|
D|--3--3----------3--5--5--5----------3--3------3--5--3--|
A|-------------------------------------------------------|
E|-------------------------------------------------------|

GUITAR (Lead):

  /~~~~~~~~~~~~~~~~~~~( REPEAT x2 )~~~~~~~~~~~~~~~~~~~~\
e|------------------------------------------------------|
B|-------------------13---11----------------------------|
G|-----------10--12------------12---10--11--12--11--12--|
D|--10--10----------------------------------------------|
A|------------------------------------------------------|
E|------------------------------------------------------|

GUITAR (Harmony):

  /~~~~~~~~~~~( REPEAT x2 )~~~~~~~~~~~\
e|-------------------------------------|
B|-------------------------------------|
G|-------------------------------------|
D|----------------3--4--5--4--5--------|
A|--3--3-------------------------3--3--|
E|-------------------------------------|

BASS:

  /~~~~( REPEAT x2 )~~~\
G|----------------------|
D|----------------------|
A|--3--3----------3--3--|
E|----------------------|


Part B:

GUITAR (Lead):

e|-------------------------------------------------10--10-----------10----------------------------|
B|-------------------------11--11------11------------------11--13-------13--11----------------11--|
G|---------------------12----------12----------12-------------------------------12---12---12------|
D|--10--10--8--10---------------------------------------------------------------------------------|
A|------------------------------------------------------------------------------------------------|
E|------------------------------------------------------------------------------------------------|

BASS:

G|----------------------------------------------------------------------|
D|----------------------1---3---4---5-----------------------------------|
A|--3---1-----------3-------------------5---------------3--5------3--5--|
E|----------1---3--------------------------3------3--6---------6--------|

GUITAR (Lead):

  /~~~~~~~~~~~~~~~~~~~~~~~~~~~~~~~~~~~~~~~~~~~~~( REPEAT x2 )~~~~~~~~~~~~~~~~~~~~~~~~~~~~~~~~~~~~~~~~~~~~~\
e|--10--10-----------10-----------------------------10--10-----------10--------------------15--14--13--11--|
B|----------11--13-------13--11----------------11-----------11--13-------13--11--13---13-------------------|
G|-------------------------------12---12---12--------------------------------------------------------------|
D|---------------------------------------------------------------------------------------------------------|
A|---------------------------------------------------------------------------------------------------------|
E|---------------------------------------------------------------------------------------------------------|

BASS:

  /~~~~~~~~~~~~~~~~~~~~~~~~~~~~~~( REPEAT x2 )~~~~~~~~~~~~~~~~~~~~~~~~~~~~~\
G|--------------------------------------------------------------------------|
D|--5-----------------------------------5-----------------------------------|
A|------5---------------3--5------3--5------5---------------3--5------3--5--|
E|---------3------3--6---------6---------------3------3--6---------6--------|


Part C:

GUITAR (Lead):

e|-------------------------------------------------------------------------12---11---10--8------------|
B|-------------------13---11------------------------------------------11--------------------11--8-----|
G|-----------10--12------------12---10--11--12--11--12---------8--10-------------------------------8--|
D|--10--10----------------------------------------------8--8------------------------------------------|
A|----------------------------------------------------------------------------------------------------|
E|----------------------------------------------------------------------------------------------------|

GUITAR (Harmony):

e|------------------------------------------------------|
B|------------------------------------------------------|
G|---------------------------------------------3--------|
D|----------------3--4--5--4--5-------------------5-----|
A|--3--3-------------------------1--1----------------6--|
E|------------------------------------------------------|

BASS:

G|----------------------|
D|----------------------|
A|--3--3----------1--1--|
E|----------------------|

GUITAR (Tremolo Picking):

e|------------------------------------------------------------|
B|------------------------------------------------------------|
G|------------------------------------------------------------|
D|------------------------------------------------------------|
A|--1-2-3-4-5-6-7-8-9-10-11-12-13-14-15-16-17-18-19-20-21-22--|
E|------------------------------------------------------------|

GUITAR (Slide):

e|--1--/--22--|
B|--1--/--22--|
G|--1--/--22--|
D|------------|
A|------------|
E|------------|

BASS:

G|---------------------------------------------------------------------------|
D|-----3--4-----4--5-----5---7--6--5--4--------------7--6--5--4--------------|
A|--3--------3--------3------------------8--7--6--5--------------8--7--6--5--|
E|---------------------------------------------------------------------------|

 

 

N. Sanity Beach - Tron544
00:00 / 00:00

©2019 by Fefe - Tron544

Sigueme en:

  • YouTube - White Circle
  • Facebook - White Circle
  • Instagram - White Circle
  • Twitter - White Circle
This site was designed with the
.com
website builder. Create your website today.
Start Now