~ MY TOMORROW ~

TABLATURAS ~ By Fefe - Tron544

 

Intro:

 

GUITAR 1:

 

e|---------------|---------------------------------------------------|

B|---------------|---------------------------------------------------|

G|--5------7--7--|--5--x--x--5--x--x--5--x---5--x--x--5--x--x--5--x--|

D|--5------7--7--|--5--x--x--5--x--x--5--x---5--x--x--5--x--x--5--x--|

A|--3------5--5--|--3--x--x--3--x--x--3--x---3--x--x--3--x--x--3--x--|

E|---------------|---------------------------------------------------|

 

GUITAR 2:

 

e|--10------|--------------------------------------|

B|------13--|--12--12--10------10--12--13--12--10--|

G|----------|--------------12----------------------|

D|----------|--------------------------------------|

A|----------|--------------------------------------|

E|----------|--------------------------------------|

 

GUITAR 1:

 

e|----------------------------------------|

B|----------------------------------------|

G|--4--x--x--4--x--x--4--x----------7--7--|

D|--4--x--x--4--x--x--4--x---2--2---7--7--|

A|--2--x--x--2--x--x--2--x---2--2---5--7--|

E|---------------------------0--0---------|

 

GUITAR 2:

 

e|--------------------------------------|

B|--10--10--------------10--------------|

G|----------12--11--12------12--11--12--|

D|--------------------------------------|

A|--------------------------------------|

E|--------------------------------------|

 

GUITAR 1:

 

e|---------------------------------------------------|----------------------------------------------|

B|---------------------------------------------------|---------------------------10--10--10---9--9--|

G|--5--x--x--5--x--x--5--x---5--x--x--5--x--x--5--x--|--4--x--x--4--x--x--4--x---9---9---9----9--9--|

D|--5--x--x--5--x--x--5--x---5--x--x--5--x--x--5--x--|--4--x--x--4--x--x--4--x---9---9---9----9--9--|

A|--3--x--x--3--x--x--3--x---3--x--x--3--x--x--3--x--|--2--x--x--2--x--x--2--x---7---7---7----7--7--|

E|---------------------------------------------------|----------------------------------------------|

 

GUITAR 2:

 

e|--------------------------------------|----------------------|

B|--12--12--10------10--12--13--12--10--|--10--10------10--12--|

G|--------------12----------------------|----------12----------|

D|--------------------------------------|----------------------|

A|--------------------------------------|----------------------|

E|--------------------------------------|----------------------|

 

 

Verse/Estrofa:

 

GUITAR 1:

 

e|------------------------------------|------------------------------------|

B|------------------------------------|------------------------------------|

G|-----------7---7----5---5----4---4--|--2---2----7---7--------------------|

D|--2---2----7---7----5---5----4---4--|--2---2----7---7----5---5----5---5--|

A|--2---2----5---5----3---3----2---2--|--0---0----5---5----5---5----5---5--|

E|--0---0-----------------------------|--------------------3---3----3---3--|

 

GUITAR 2:

 

e|------------------------------------------------------------|------------------------------------|

B|------------------------------------------------------------|------------------------------------|

G|--9--9--9--9--9--------------9--9--9--9--9--11--12--11------|----------------------9-------------|

D|-----------------12--12---------------------------------12--|--12--10--9--10--10------12--10--9--|

A|------------------------------------------------------------|------------------------------------|

E|------------------------------------------------------------|------------------------------------|

 

GUITAR 1:

 

e|------------------------------------|--------------------------------------------------|

B|------------------------------------|--------------------------------------------------|

G|-----------7---7----5---5----4---4--|--2---2----4---4----------------------------------|

D|--2---2----7---7----5---5----4---4--|--2---2----4---4----2---2----2--x--x--2--x--x--2--|

A|--2---2----5---5----3---3----2---2--|--0---0----2---2----2---2----2--x--x--2--x--x--2--|

E|--0---0-----------------------------|--------------------0---0----0--x--x--0--x--x--0--|

 

GUITAR 2:

 

e|--------------------------------------------------------|------------------------------------------------|

B|--------------------------------------------------------|-----------------12--10-------------------------|

G|--9--9--9--9--9--------------9--9--9--9--9--11--12--11--|--------------9----------12--11--12--11---9--9--|

D|-----------------12--12---------------------------------|--12--12--10------------------------------------|

A|--------------------------------------------------------|------------------------------------------------|

E|--------------------------------------------------------|------------------------------------------------|

 

 

Pre-Chorus/Pre-Estribillo:

 

GUITAR 1:

 

e|---------------------------------------------------|---------------------------------------------------|

B|---------------------------------------------------|---------------------------------------------------|

G|--5--x--x--5--x--x--5--x---5--x--x--5--x--x--5--x--|--5--x--x--5--x--x--5--x---5--x--x--5--x--x--5--x--|

D|--5--x--x--5--x--x--5--x---5--x--x--5--x--x--5--x--|--5--x--x--5--x--x--5--x---5--x--x--5--x--x--5--x--|

A|--3--x--x--3--x--x--3--x---3--x--x--3--x--x--3--x--|--3--x--x--3--x--x--3--x---3--x--x--3--x--x--3--x--|

E|---------------------------------------------------|---------------------------------------------------|

 

GUITAR 2:

 

e|----------------------------------------|---------------------------------------------|

B|--------------------12--12--10------10--|---------------------10--10------------------|

G|--9--11--12--11--9--------------12------|------9--11------11----------12--11--12--11--|

D|----------------------------------------|--12---------12------------------------------|

A|----------------------------------------|---------------------------------------------|

E|----------------------------------------|---------------------------------------------|

 

GUITAR 1:

 

e|---------------------------------------------------|---------------------------------------------------|

B|---------------------------------------------------|---------------------------------------------------|

G|--4--x--x--4--x--x--4--x---4--x--x--4--x--x--4--x--|---------------------------------------------------|

D|--4--x--x--4--x--x--4--x---4--x--x--4--x--x--4--x--|--2--x--x--2--x--x--2--x---2--x--x--2--x--x--2--x--|

A|--2--x--x--2--x--x--2--x---2--x--x--2--x--x--2--x--|--2--x--x--2--x--x--2--x---2--x--x--2--x--x--2--x--|

E|---------------------------------------------------|--0--x--x--0--x--x--0--x---0--x--x--0--x--x--0--x--|

 

GUITAR 2:

 

e|---------------------------------------------|

B|---------------------10--10------------------|

G|------9--11------11----------12--11--12--11--|

D|--12---------12------------------------------|

A|---------------------------------------------|

E|---------------------------------------------|

 

GUITAR 1:

 

e|-----------------------------------------------------------|

B|-----------------------------------------------------------|

G|--2---2----4---4----5--5---6--6---7--7--7--7---7--7--7--7--|

D|--2---2----4---4----5--5---7--7---7--7--7--7---7--7--7--7--|

A|--0---0----2---2----3--3---4--4---5--5--5--5---5--5--5--5--|

E|-----------------------------------------------------------|

 

GUITAR 2:

 

e|--------------------------------------------------------|

B|----------------------10----12------12--13--12--12--10--|

G|--9--11--12---11--12------------12----------------------|

D|--------------------------------------------------------|

A|--------------------------------------------------------|

E|--------------------------------------------------------|

 

 

Chorus/Estribillo:

 

GUITAR 1:

 

e|--------|---------------------------------------------------|----------------------------------------|

B|--------|---------------------------------------------------|----------------------------------------|

G|--7--7--|--5--x--x--5--x--x--5--x---5--x--x--5--x--x--5--x--|--4--x--x--4--x--x--4--x----------7--7--|

D|--7--7--|--5--x--x--5--x--x--5--x---5--x--x--5--x--x--5--x--|--4--x--x--4--x--x--4--x---2--2---7--7--|

A|--5--5--|--3--x--x--3--x--x--3--x---3--x--x--3--x--x--3--x--|--2--x--x--2--x--x--2--x---2--2---5--7--|

E|--------|---------------------------------------------------|---------------------------0--0---------|

 

GUITAR 2:

 

e|--10------|--------------------------------------|--------------------------------------|

B|------13--|--12--12--10------10--12--13--12--10--|--10--10--------------10--------------|

G|----------|--------------12----------------------|----------12--11--12------12--11--12--|

D|----------|--------------------------------------|--------------------------------------|

A|----------|--------------------------------------|--------------------------------------|

E|----------|--------------------------------------|--------------------------------------|

 

GUITAR 1:

 

e|---------------------------------------------------|----------------------------------------------|

B|---------------------------------------------------|---------------------------10--10--10---9--9--|

G|--5--x--x--5--x--x--5--x---5--x--x--5--x--x--5--x--|--4--x--x--4--x--x--4--x---9---9---9----9--9--|

D|--5--x--x--5--x--x--5--x---5--x--x--5--x--x--5--x--|--4--x--x--4--x--x--4--x---9---9---9----9--9--|

A|--3--x--x--3--x--x--3--x---3--x--x--3--x--x--3--x--|--2--x--x--2--x--x--2--x---7---7---7----7--7--|

E|---------------------------------------------------|----------------------------------------------|

 

GUITAR 2:

 

e|--------------------------------------|----------------------|

B|--12--12--10------10--12--13--12--10--|--10--10------10--12--|

G|--------------12----------------------|----------12----------|

D|--------------------------------------|----------------------|

A|--------------------------------------|----------------------|

E|--------------------------------------|----------------------|

 

GUITAR 1:

 

e|---------------------------------------------------|----------------------------------------|

B|---------------------------------------------------|----------------------------------------|

G|--5--x--x--5--x--x--5--x---5--x--x--5--x--x--5--x--|--4--x--x--4--x--x--4--x----------------|

D|--5--x--x--5--x--x--5--x---5--x--x--5--x--x--5--x--|--4--x--x--4--x--x--4--x---2--2---6--6--|

A|--3--x--x--3--x--x--3--x---3--x--x--3--x--x--3--x--|--2--x--x--2--x--x--2--x---2--2---7--7--|

E|---------------------------------------------------|---------------------------0--0---4--4--|

 

GUITAR 2:

 

e|--------------------------------------|----------------------------------|

B|--12--12--10------10--12--13--12--10--|--10--10--------------10--12--12--|

G|--------------12----------------------|----------12--11--12--------------|

D|--------------------------------------|----------------------------------|

A|--------------------------------------|----------------------------------|

E|--------------------------------------|----------------------------------|

 

GUITAR 1:

 

e|---------------------------------------------------|-------------------------------------|

B|---------------------------------------------------|-------------------------------------|

G|--2--x--x--2--x--x--2--x---4--x--x--4--x--x--4--x--|--5--x--x--5--x--x--5--x---7------5--|

D|--2--x--x--2--x--x--2--x---4--x--x--4--x--x--4--x--|--5--x--x--5--x--x--5--x---7------5--|

A|--0--x--x--0--x--x--0--x---2--x--x--2--x--x--2--x--|--3--x--x--3--x--x--3--x---5------3--|

E|---------------------------------------------------|-------------------------------------|

 

GUITAR 2:

 

e|--------------10-------------------------------------|

B|--13--12--13------------13--12-------10------10------|

G|--------------------12-----------12------12------12--|

D|-----------------------------------------------------|

A|-----------------------------------------------------|

E|-----------------------------------------------------|

My Tomorrow - Tron544
00:00 / 00:00

©2019 by Fefe - Tron544

Sigueme en:

  • YouTube - White Circle
  • Facebook - White Circle
  • Instagram - White Circle
  • Twitter - White Circle
This site was designed with the
.com
website builder. Create your website today.
Start Now