~ MY SOUL, YOUR BEATS! ~

TABLATURAS ~ By Fefe - Tron544

 

Intro:

 

e|---------------------------------------|

B|---------------------------------------|

G|--9b-r--7-----------9b--r--7--------9--|

D|----------9--7----------------9--7-----|

A|---------------------------------------|

E|---------------------------------------|

 

e|-------------------7----------------------------|

B|------------7--10-------------------------------|

G|--9b--r--7----------------9b-r--7---------------|

D|-----------------------------------7--7--7-/-9--|

A|------------------------------------------------|

E|------------------------------------------------|

 

 

Verse/Estrofa:

 

GUITAR 1:

 

e|-------------------------------------------|-------------------------------------------|

B|-------------------------------------------|-------------------------------------------|

G|------------------------x--x--7------------|------------------------x--x--7------------|

D|--x--x--5--x--x--x--5---x--x--7---x--x--7--|--x--x--9--x--x--x--9---x--x--7---x--x--5--|

A|--x--x--5--x--x--x--5---x--x--5---x--x--7--|--x--x--9--x--x--x--9---x--x--5---x--x--5--|

E|--x--x--3--x--x--x--3-------------x--x--5--|--x--x--7--x--x--x--7-------------x--x--3--|

 

GUITAR 2:

 

e|------------------------------------------------------|---------------------------------------|

B|--------------------------7---------------------------|---------------------------------------|

G|--------6--7--6--9--7--9-----6------------6--7--6--7--|--------6--7--9------------6-----------|

D|-----7---------------------------------7--------------|--9--9-----------9------9-----7--9--9--|

A|--9---------------------------------9-----------------|---------------------------------------|

E|------------------------------------------------------|---------------------------------------|

 

GUITAR 1:

 

e|---------------------------------------------|-------------------------------------|

B|---------------------------------------------|-------------------------------------|

G|---------------------------------------------|-----------4------------4---------2--|

D|--x--x--5--x--x--x--5---x--x--2--x--x--x--2--|--------4------------4---------2-----|

A|--x--x--5--x--x--x--5---x--x--2--x--x--x--2--|-----4------------2---------0--------|

E|--x--x--3--x--x--x--3---x--x--0--x--x--x--0--|--2----------------------------------|

 

GUITAR 2:

 

e|---------------------------------------|

B|---------------------------------------|

G|--------6--7--9------------6-----------|

D|--9--9-----------9------9-----7--9--9--|

A|---------------------------------------|

E|---------------------------------------|

 

GUITAR 1:

 

e|-------------------------------------------|-------------------------------------------|

B|-------------------------------------------|-------------------------------------------|

G|------------------------x--x--7------------|------------------------x--x--7------------|

D|--x--x--5--x--x--x--5---x--x--7---x--x--7--|--x--x--9--x--x--x--9---x--x--7---x--x--5--|

A|--x--x--5--x--x--x--5---x--x--5---x--x--7--|--x--x--9--x--x--x--9---x--x--5---x--x--5--|

E|--x--x--3--x--x--x--3-------------x--x--5--|--x--x--7--x--x--x--7-------------x--x--3--|

 

GUITAR 2:

 

e|---------------------------------------------------------|---------------------------------------|

B|-----------------------------7---------------------------|---------------------------------------|

G|--------6--7--6--9--9--7--9-----6------------6--7--6--7--|--------6--7--9------------6-----------|

D|-----7------------------------------------7--------------|--9--9-----------9------9-----7--9--9--|

A|--9------------------------------------9-----------------|---------------------------------------|

E|---------------------------------------------------------|---------------------------------------|

 

GUITAR 1:

 

e|---------------------------------------------|----------------------------2--0-----|

B|---------------------------------------------|----------------------------------3--|

G|---------------------------------------------|-----------4------4--4--4------------|

D|--x--x--5--x--x--x--5---x--x--2--x--x--x--2--|--------4---------4--4--4------------|

A|--x--x--5--x--x--x--5---x--x--2--x--x--x--2--|-----4------------2--2--2------------|

E|--x--x--3--x--x--x--3---x--x--0--x--x--x--0--|--2----------------------------------|

 

GUITAR 2:

 

e|------------------------------------------|

B|------------------------------------7--7--|

G|--------6--7--9------------6--7--9--------|

D|--9--9-----------9------9-----------------|

A|------------------------------------------|

E|------------------------------------------|

 

 

Pre-Chorus/Pre-Estribillo:

 

GUITAR 1:

 

e|----------------------------------------------------------|

B|------------------------------------------------10--8--7--|

G|--11-----7--9-------11-----7--9-------11-----7------------|

D|------9--------9--------9--------9--------9---------------|

A|----------------------------------------------------------|

E|----------------------------------------------------------|

 

GUITAR 2:

 

e|-----------------------------------------------|

B|--7--10--7--10--8--7---------------------7--7--|

G|----------------------7------9--7-----9--------|

D|-----------------------------------9-----------|

A|-----------------------------------------------|

E|-----------------------------------------------|

 

 

Chorus/Estribillo:

 

GUITAR 1:

 

  /~~~~~~REPEAT~x3~/~REPITE~x3~~~~~~\

e|--12--12--12--12---12--12--12--12--|--11--11--11--12---12--12--12--12--|

B|--12--12--12--12---12--12--12--12--|--12--12--12--12---12--12--12--12--|

G|-----------------------------------|-----------------------------------|

D|-----------------------------------|-----------------------------------|

A|-----------------------------------|-----------------------------------|

E|-----------------------------------|-----------------------------------|

 

GUITAR 2:

 

e|--------------------------------|--------------------------------9------|

B|------------------9--12--9--12--|------------------9--12--9--12-----12--|

G|--11b-r--11--9------------------|--11b-r--11--9-------------------------|

D|--------------------------------|---------------------------------------|

A|--------------------------------|---------------------------------------|

E|--------------------------------|---------------------------------------|

 

GUITAR 1:

 

e|-----------------------------------|-----------------------------------|

B|-----------------------------------|-----------------------------------|

G|--13--13--13--13---13--13--13--13--|--16--16--16--16---13--13--13--13--|

D|-----------------------------------|-----------------------------------|

A|--11--11--11--11---11--11--11--11--|--14--14--14--11---11--11--11--11--|

E|-----------------------------------|-----------------------------------|

 

e|--------------------------------|------------------------------|

B|--------------------------------|------------------------------|

G|--13--13--13--11--11--11--9--9--|--8--8--9--9--13--13--11--11--|

D|--------------------------------|------------------------------|

A|--11--11--11--9---9---9---7--7--|--6--6--7--7--11--11--9---9---|

E|--------------------------------|------------------------------|

 

GUITAR 2:

 

e|------------------------------------------------|

B|--9-------------9------9-------------9--12------|

G|-----11--9--11------------11--9--11---------11--|

D|------------------------------------------------|

A|------------------------------------------------|

E|------------------------------------------------|

 

GUITAR 1:

 

  /~~~~~~REPEAT~x3~/~REPITE~x3~~~~~~\

e|--12--12--12--12---12--12--12--12--|--11--11--11--12---12--12--12--12--|

B|--12--12--12--12---12--12--12--12--|--12--12--12--12---12--12--12--12--|

G|-----------------------------------|-----------------------------------|

D|-----------------------------------|-----------------------------------|

A|-----------------------------------|-----------------------------------|

E|-----------------------------------|-----------------------------------|

 

GUITAR 2:

 

e|--------------------------------|--------------------------------9------|

B|------------------9--12--9--12--|------------------9--12--9--12-----12--|

G|--11b-r--11--9------------------|--11b-r--11--9-------------------------|

D|--------------------------------|---------------------------------------|

A|--------------------------------|---------------------------------------|

E|--------------------------------|---------------------------------------|

 

GUITAR 1:

 

e|--------------------------------|----------------------------|----------------------------------|

B|--------------------------------|----------------------------|----------------------------------|

G|--13--13--13--11--11--11--9--9--|--8--8--8--9--9--9--11--11--|--16--16--16--16--16--16--16--16--|

D|--------------------------------|----------------------------|----------------------------------|

A|--11--11--11--9---9---9---7--7--|--6--6--6--7--7--7--9---9---|--14--14--14--14--14--14--14--14--|

E|--------------------------------|----------------------------|----------------------------------|

 

GUITAR 2:

 

e|------11--------------------|

B|--12------12--12--------12--|

G|--------------------11------|

D|----------------------------|

A|----------------------------|

E|----------------------------|

 

 

Outro:

 

GUITAR 1:

 

e|------------------|------------------|------------------|

B|------------------|------------------|------------------|

G|--9--9----6----4--|--9--9----6----4--|--9--9----4----6--|

D|--9--9----6----4--|--9--9----6----4--|--9--9----4----6--|

A|--7--7----4----2--|--7--7----4----2--|--7--7----2----4--|

E|------------------|------------------|------------------|

 

GUITAR 2:

 

e|-------------------|-------------------|-------------------|

B|-------------------|-------------------|-------------------|

G|--11b-r--9---------|--11b-r--9---------|--11b-r--9---------|

D|------------11--9--|------------11--9--|------------9--11--|

A|-------------------|-------------------|-------------------|

E|-------------------|-------------------|-------------------|

 

 

 

My Soul, Your Beats! - Tron544
00:00 / 00:00

©2019 by Fefe - Tron544

Sigueme en:

  • YouTube - White Circle
  • Facebook - White Circle
  • Instagram - White Circle
  • Twitter - White Circle
This site was designed with the
.com
website builder. Create your website today.
Start Now