MY SONG

ANGEL BEATS!

CHORDS ~ By Fefe (Tron544)

 

Chords used/Acordes utilizados:

 

Am: x02210  -  Asus2: x02200  -  Asus4: x02230
Asus49: x57700  -  Am7: x02010

Bsus4: x24400

C: 032010  -  Cmaj7: x35500

D: xx0232  -  Dsus2: xx0230  -  Dsus2/F#: 2x0230

Em: 022000  -  Em7: 022030  -  Em9: 020002

F: 133211  -  
Fsus4: 133311  -  Fmaj7(#11): 133200

G: 320033  -  Gsus4: 330033

 

 

| Am Asus4 | Asus2   Am Asus2 |

| Am Asus4 | Em |

 

C       Em         Am7       Em        Am     G        F  Gsus4  G

Joushiki butteru yatsu ga waratteru Tsugi ha donna uso wo iu?

F    G     F    G            F    Em       Am

Sore de erareta mono   Daiji ni kazatte okeru no?

 

  G    C   Dsus2  C       F   G

Demo asu e to susumanakya naranai

 

Am  Dsus2  C   Am D#

Dakara   kou utau yo

 

     G         F  Em        Dsus2  D  

Naiteru kimi koso kodoku na kimi koso

          C         Dsus2/F#   G      Fsus4  F

Tadashii yo ningen     rashii yo

      G         F  Em        Dsus2    D

Otoshita namida ga kou iu yo Konna ni mo

      C           Dsus2/F#

Utsukushii uso ja nai

   Em7    Em9   F  Fmaj7-5  F    

Hontou no        

               Em7   Em9   F  Fmaj7-5  F 

Bokura o         

   G

Arigatou

 

| Asus2 | Bsus4 | Cmaj7 Asus49 |

| Fmaj7(#11) |

My Song - Tron544
00:00 / 00:00
DONATE%20BUTTON%20(EN)_edited.png

TABS ~ By Fefe (Tron544)

 

Verse/Estrofa:

 

e|-------------------------------------------------|------------------------------------------------------|

B|-------------------------------------------------|------------------------------------------------------|

G|--------------9---------------------------9------|---------------------9--10--12--9--10--10----10-/-12--|

D|--12--10--12-----------10--9--12--10--12---------|--10--9--12--10--12-----------------------------------|

A|-----------------10--------------------------10--|------------------------------------------------------|

E|-------------------------------------------------|------------------------------------------------------|

 

e|---------------------------------------------------------------------------------------|

B|--------10-----------------------10-----------------------10---------------------------|

G|--12----------------9--10--12----------------9--10--12---------------------------------|

D|------------12--12-------------------12--12-------------------12--10--12--10--9--------|

A|-----------------------------------------------------------------------------------12--|

E|---------------------------------------------------------------------------------------|

 

e|-------------------------------------------------------------|

B|-------------------10----------------------------------------|

G|-------------12--------------9-------------------------------|

D|------9--10------------12-------12--10------------9------10--|

A|--12--------------------------------------10--10-----10------|

E|-------------------------------------------------------------|

 

e|------------------------------------------|

B|--------10--------------------------------|

G|--12--------------9--------------9----12--|

D|------------12-------12--10--12-----------|

A|------------------------------------------|

E|------------------------------------------|

 

 

Chorus/Estribillo:

 

e|------------------------------------------------------------|

B|----------12--12----------13--12--12------15----13--12------|

G|--12--14--------------12--------------------------------12--|

D|------------------------------------------------------------|

A|------------------------------------------------------------|

E|------------------------------------------------------------|

 

e|--------------------------------------------------------------------------------|

B|--15----13--12----------------------12----------13--12--12----------------------|

G|----------------12--12--14--12--14----------12------------------14--12--14--12--|

D|--------------------------------------------------------------------------------|

A|--------------------------------------------------------------------------------|

E|--------------------------------------------------------------------------------|

 

e|------------------------------------------------------------|

B|----------12--12----------13--12--12------15----13--12------|

G|--12--14--------------12--------------------------------12--|

D|------------------------------------------------------------|

A|------------------------------------------------------------|

E|------------------------------------------------------------|

 

e|--------------------------------------------------------------------------------|

B|--15----13--12----------------------12----------13--12--12----------------------|

G|----------------12--12--14--12--14----------12------------------14--12--14--12--|

D|--------------------------------------------------------------------------------|

A|--------------------------------------------------------------------------------|

E|--------------------------------------------------------------------------------|

 

e|------------------|------------------|

B|------------------|------------------|

G|--14--12--14--12--|--14--12--14--12--|

D|------------------|------------------|

A|------------------|------------------|

E|------------------|------------------|

©2015 by Fefe - Tron544

Sigueme en:

  • YouTube - White Circle
  • Facebook - White Circle
  • Instagram - White Circle
  • Twitter - White Circle
This site was designed with the
.com
website builder. Create your website today.
Start Now