~ MUNOU ~

TABLATURAS ~ By Fefe - Tron544

 

Intro:

 

e|---------------------------------------|

B|----------12-/-13--12------------------|

G|--12-------------------12--11--12------|

D|------12---------------------------12--|

A|---------------------------------------|

E|---------------------------------------|

 

e|--------------------------------------------|

B|------13--12----------------13--12----------|

G|--------------12--14----------------11--12--|

D|--12--------------------12------------------|

A|--------------------------------------------|

E|--------------------------------------------|

 

e|----------------------------------------------------------------------|

B|--------------12-/-13--12-----------------------------13--12----------|

G|--11--12-------------------12--11--12-/-14--------------------12--14--|

D|----------12--------------------------------12----12------------------|

A|----------------------------------------------------------------------|

E|----------------------------------------------------------------------|

 

e|------------------------------------------|

B|------12----------12----------12----------|

G|----------14--12------14--12------14--12--|

D|--12--------------------------------------|

A|------------------------------------------|

E|------------------------------------------|

 

 

Verse/Estrofa:

 

e|-----------------------------------------------------------------------------|

B|-----------------------------------------------------------------------------|

G|--11--12-----------------------------------11--12--------------------11------|

D|----------14--14--12--12----------14---------------14--14--12------------12--|

A|--------------------------14--14------14------------------------14-----------|

E|-----------------------------------------------------------------------------|

 

e|-------------------------------------------------------------------------------------------------|

B|-------------------------------------------------------------------------12--15------12----------|

G|--11--12--------------------------11--11--------------------11--12---14----------14------12------|

D|----------14--14--12--12------------------12----10--12--14-----------------------------------12--|

A|--------------------------14--14-----------------------------------------------------------------|

E|-------------------------------------------------------------------------------------------------|

 

 

Chorus/Estribillo:

 

e|----------------------------------------------------14--15----------------------------------------|

B|------12------------------12--15----------15----12----------15---12-------------------15--15------|

G|--12------12--14------12----------14--12-----------------------------14--12---12--12----------12--|

D|------------------14------------------------------------------------------------------------------|

A|--------------------------------------------------------------------------------------------------|

E|--------------------------------------------------------------------------------------------------|

 

e|------------------------------------------------14--15------------------------------------|

B|------12------------------12--15----------12------------15---12-----------------------12--|

G|--12------12--14--11--12----------14--12-------------------------14--12---11--11--12------|

D|------------------------------------------------------------------------------------------|

A|------------------------------------------------------------------------------------------|

E|------------------------------------------------------------------------------------------|

 

 

Outro:

 

e|--15-------12---------------------------------12-------------------------------------------|

B|-------12------------------12--------12-----------15--12----------15--12-------------------|

G|---------------14--12--12--------14------12---------------12--14-----------12--14--12--12--|

D|-------------------------------------------------------------------------------------------|

A|-------------------------------------------------------------------------------------------|

E|-------------------------------------------------------------------------------------------|

 

 

Munou - Tron544
00:00 / 00:00

©2019 by Fefe - Tron544

Sigueme en:

  • YouTube - White Circle
  • Facebook - White Circle
  • Instagram - White Circle
  • Twitter - White Circle
This site was designed with the
.com
website builder. Create your website today.
Start Now