MOONLIGHT DENSETSU

SAILOR MOON

TABS ~ By Fefe (Tron544)

 

Intro:

 

e|-----------------------------|------------------------------------------|

B|-----------------------9--8--|------------------------------------------|

G|-----------8--7--------------|--------------12--12--10--10----------10--|

D|-----------------8--9--------|------10--13------------------13--12------|

A|--9--10----------------------|--10--------------------------------------|

E|-----------------------------|------------------------------------------|

 

e|------------------------------------------|--------------------------|

B|-------------9--9--11--9------------------|--13--13--12------11------|

G|---------10---------------12--10------12--|--------------12------13--|

D|--9--12---------------------------13------|--------------------------|

A|------------------------------------------|--------------------------|

E|------------------------------------------|--------------------------|

 

e|----------------------------------------|

B|----------------------------------------|

G|--13--12--10--12--10--------------------|

D|----------------------13--12--10--------|

A|------------------------------------10--|

E|----------------------------------------|

 

 

Verse/Estrofa:

 

e|----------------------------------------------|---------------------------------------|

B|----------------------------------------------|---------------------------------------|

G|--------------12--12--10--10--------------10--|--------------10--10--8--8----------8--|

D|------10--13------------------13--13--12------|-------9--12----------------12--10-----|

A|--10------------------------------------------|---10----------------------------------|

E|----------------------------------------------|---------------------------------------|

 

e|----------------------------------------------|--------------------------------------|

B|----------------------------------------------|--------------------------------------|

G|--------------12--12--10--10--------------10--|--------------10--12--10--------------|

D|------10--13------------------13--13--12------|-------9--12--------------13--12--13--|

A|--10------------------------------------------|---10---------------------------------|

E|----------------------------------------------|--------------------------------------|

 

e|----------------------------------------------|---------------------------------------|

B|----------------------------------------------|---------------------------------------|

G|--------------12--12--10--10--------------10--|--------------10--10--8--8----------8--|

D|------10--13------------------13--13--12------|-------9--12----------------12--10-----|

A|--10------------------------------------------|---10----------------------------------|

E|----------------------------------------------|---------------------------------------|

 

e|----------------------------------------------|----------------------------------|

B|--------------------------------------11------|----------------------------------|

G|--------------12--12--10--10--12--12------13--|--13--12--10--12--10--------------|

D|------10--13----------------------------------|----------------------13--12--10--|

A|--10------------------------------------------|----------------------------------|

E|----------------------------------------------|----------------------------------|

Moonlight Densetsu - Tron544
00:00 / 00:00
DONATE%20BUTTON%20(EN)_edited.png

Pre-Chorus/Pre-Estribillo:

 

e|------------------------------------------------|------------------------------------|

B|------11--13--13--11----------------------------|------11--13--13----13--11----------|

G|--13------------------13--12----10------10--12--|--13------------------------13--12--|

D|------------------------------------13----------|------------------------------------|

A|------------------------------------------------|------------------------------------|

E|------------------------------------------------|------------------------------------|

 

 

Chorus/Estribillo:

 

e|----------------------------------------------|---------------------------------------|

B|----------------------------------------------|---------------------------------------|

G|--------------12--12--10--10--------------10--|--------------10--10--8--8----------8--|

D|------10--13------------------13--13--12------|-------9--12----------------12--10-----|

A|--10------------------------------------------|---10----------------------------------|

E|----------------------------------------------|---------------------------------------|

 

e|----------------------------------------------|----------------------------------|

B|--------------------------------------11------|----------------------------------|

G|--------------12--12--10--10--12--12------13--|--13--12--10--12--10--------------|

D|------10--13----------------------------------|----------------------13--12--10--|

A|--10------------------------------------------|----------------------------------|

E|----------------------------------------------|----------------------------------|

 

e|----------------------------------|----------------------------------|

B|----------------------------------|------------------------------13--|

G|--13--12--10--12--10--------------|--13--12--10--12--10--------------|

D|----------------------13--12--10--|----------------------13--12--10--|

A|----------------------------------|----------------------------------|

E|----------------------------------|----------------------------------|

©2015 by Fefe - Tron544

Sigueme en:

  • YouTube - White Circle
  • Facebook - White Circle
  • Instagram - White Circle
  • Twitter - White Circle
This site was designed with the
.com
website builder. Create your website today.
Start Now