MOONLIGHT DENSETSU

SAILOR MOON

CHORDS ~ By Fefe (Tron544)

 

*CAPO 3rd FRET / CAPO EN 3er TRASTE*

Chords used/Acordes utilizados:

Am: x.0.2.2.1.0  -  A7: x.0.2.0.2.0  -  Am(add9): x.x.7.5.5.7
Dm: x.x.0.2.3.1
E: 0.2.2.1.0.0
F: 1.3.3.2.1.1

 

e|------------------1-0--------0--0-----------------------|
B|----------1-0--------------1------3--3-1--0--3-----0-3--|
G|--------------0-1--------2-----------------------0------|
D|--1-2------------------2--------------------------------|
A|--------------------------------------------------------|
E|--------------------------------------------------------|

e|--1--1-3--1-0------0------5---5-4---4-3--1---1-0---0--------------0--|
B|--------------3-1--------------------------------3----3--1-0------0--|
G|--------------------------------------------------------------2---1--|
D|------------------------------------------------------------------2--|
A|------------------------------------------------------------------2--|
E|------------------------------------------------------------------0--|

 


         Am            E
   Gomen ne sunao ja nakute
                      Am
   Yume no naka nara ieru
                          E
   Shikou kairo wa shooto sunzen
                    Am
   Ima sugu aitai yo
                        E
   Nakitaku naru you na MOONLIGHT
                    Am
   Denwa mo dekinai MIDNIGHT
             A7       Dm
   Datte junjou doushiyou
         E        Am    A7
   Haato wa mangekyou

 


      Dm              Am
   Tsuki no hikari ni michibikare
     Dm    F         E
   Nandomo... meguriau

 


         Am            E
   Seiza no matataki kazoe
                   Am
   Uranau koi no yukue
              A7      Dm
   Onaji kuni ni umareta no
         E       Am
   Mirakuru romansu
       E        Am
   Shinjite iru no
         E           Am(add9)
   Mirakuru romansu

DONATE%20BUTTON%20(EN)_edited.png

©2015 by Fefe - Tron544

Sigueme en:

  • YouTube - White Circle
  • Facebook - White Circle
  • Instagram - White Circle
  • Twitter - White Circle
This site was designed with the
.com
website builder. Create your website today.
Start Now