~ MOON ON THE WATER ~

ACORDES ~ By Fefe - Tron544

 

Chords used/Acordes utilizados:

 

Asus2: x.0.2.2.0.0
B: x.2.4.4.4.2
C#m: x.4.6.6.5.4
E: 0.2.2.1.0.0
F#m: 2.4.4.2.2.2

%: Same chord as the previous one / Mismo acorde que el anterior

 

Intro:

 

e|--------0----------------5-------------------------------------|
B|-----------0----------------5-------------4-h-5---------2-h-4--|
G|--------------3----------------8-------------------------------|
D|---------------------------------------6-------------4---------|
A|-----2----------------7-------------4-------------2------------|
E|--0----------------5-------------------------------------------|

 

e|--------------0-----------------------0--|
B|--------0--------0-----0--------0--------|
G|-----------2--------2--------------2-----|
D|-----2-----------------------2-----------|
A|--0-----------------------0--------------|
E|-----------------------------------------|


e|--------0----------------5--------------------------------------------------0-----------------------0--|
B|-----------0----------------5-------------4-h-5---------2-h-4---------0--------0-----0--------0--------|
G|--------------3----------------8-----------------------------------------2--------2--------------2-----|
D|---------------------------------------6-------------4-------------2-----------------------2-----------|
A|-----2----------------7-------------4-------------2-------------0-----------------------0--------------|
E|--0----------------5-----------------------------------------------------------------------------------|

 

| E | Asus2 | C#m - B | Asus2 | % |

 


First Verse/Primera Estrofa:

 

 E        Asus2
Full moon waves
C#m            B             Asus2
Slowly on the surface of the lake
 E      Asus2
You are there
C#m           B                  Asus2
Smiling in my arms for all those years

 


First Chorus/Primer Estribillo:

 

       C#m
What a fool!
  Asus2               E
I don't know about tomorrow
  B               F#m   Asus2
What it's like to be... Ah...
      C#m
I was sure
         Asus2           E
'Couldn't let myself to go
B             F#m        Asus2
Even though I feel... The end...

 


Second Verse/Segundo Estrofa:

 

E        Asus2
Old love affair
 C#m             B               Asus2
Floating like a bird resting her wings
 E      Asus2
You are there
C#m           B                  Asus2
Smiling in my arms for all those years

 


Second Chorus/Segundo Estribillo:

 

       C#m
What a fool!
  Asus2               E
I don't know about tomorrow
  B               F#m   Asus2
What it's like to be... Ah...
      C#m
I was sure
         Asus2           E
'Couldn't let myself to go
B             F#m        Asus2
Even though I feel... The end...

 


Outro:

 

e|--------0----------------5--------------------------------------------------0-----------------------0--|
B|-----------0----------------5-------------4-h-5---------2-h-4---------0--------0-----0--------0--------|
G|--------------3----------------8-----------------------------------------2--------2--------------2-----|
D|---------------------------------------6-------------4-------------2-----------------------2-----------|
A|-----2----------------7-------------4-------------2-------------0-----------------------0--------------|
E|--0----------------5-----------------------------------------------------------------------------------|

 

e|--------0----------------5--------------------------------------------------0--------------------------0--|
B|-----------0----------------5-------------4-h-5---------2-h-4---------0--------0-----0---------0-------0--|
G|--------------3----------------8-----------------------------------------2--------2----------------2---2--|
D|---------------------------------------6-------------4-------------2-----------------------2-----------2--|
A|-----2----------------7-------------4-------------2-------------0-----------------------0--------------0--|
E|--0----------------5--------------------------------------------------------------------------------------|

 

 

 

TABLATURAS ~ By Fefe - Tron544

 

Intro:

 

GUITAR 2:

 

  /~~~~~~~~~~~~~~~~~~~~~~( REPEAT x2 / REPITE x2 )~~~~~~~~~~~~~~~~~~~\

e|--------------------------------------------------------------------|
B|--------------------------------------------------------------------|
G|--2-/-4---4-h-6-----------------------------------------------------|
D|------------------6-\-4--2----4--2--2--4-/-6--4--2--2--4-/-6--4--2--|
A|--------------------------------------------------------------------|
E|--------------------------------------------------------------------|

 

GUITAR 1:

 

e|-------------------------------------4-----------4-----------0--0---0--0---0--0---7---7---7---|
B|--------5----------------10----------5---4-h-5---4---2-h-4---0--0---0--0---0--0---10--10--10--|
G|-----4-----4--3-------9------9--8----4-----------4-----------2--2---2--2---2--2---9---9---9---|
D|--2----------------7-----------------6-----------4-----------2--2---2--2---2--2---7---7---7---|
A|-------------------------------------4-----------2-----------0--0---0--0---0--0---------------|
E|----------------------------------------------------------------------------------------------|

 


First Verse/Primera Estrofa:

 

GUITAR 1:

 

e|-------------------------------------4----------4----------0--0---0--0---0--0---7---7----7---7----7---7---|
B|--------5----------------10----------5--4-h-5---4--2-h-4---0--0---0--0---0--0---10--10---10--10---10--10--|
G|-----4-----4--3-------9------9--8----4----------4----------2--2---2--2---2--2---9---9----9---9----9---9---|
D|--2----------------7-----------------6----------4----------2--2---2--2---2--2---7---7----7---7----7---7---|
A|-------------------------------------4----------2----------0--0---0--0---0--0-----------------------------|
E|----------------------------------------------------------------------------------------------------------|

 

GUITAR 2:

 

e|--------------------------------------------------------------------|
B|--------------------------------------------------------------------|
G|--2-/-4---4-h-6-----------------------------------------------------|
D|------------------6-\-4--2----4--2--2--4-/-6--4--2--2--4-/-6--4--2--|
A|--------------------------------------------------------------------|
E|--------------------------------------------------------------------|

 

GUITAR 1:

 

e|-------------------------------------4----------4----------0--0---0--0---0--0---7---7---7---7---7---7---7---7---|
B|--------5----------------10----------5--4-h-5---4--2-h-4---0--0---0--0---0--0---10--10--10--10--10--10--10--10--|
G|-----4-----4--3-------9------9--8----4----------4----------2--2---2--2---2--2---9---9---9---9---9---9---9---9---|
D|--2----------------7-----------------6----------4----------2--2---2--2---2--2---7---7---7---7---7---7---7---7---|
A|-------------------------------------4----------2----------0--0---0--0---0--0-----------------------------------|
E|----------------------------------------------------------------------------------------------------------------|

 

GUITAR 2:

 

e|--------------------------------------------------------------------|
B|--------------------------------------------------------------------|
G|--2-/-4---4-h-6-----------------------------------------------------|
D|------------------6-\-4--2----4--2--2--4-/-6--4--2--2--4-/-6--4--2--|
A|--------------------------------------------------------------------|
E|--------------------------------------------------------------------|

 


First Chorus/Primer Estribillo:

 

GUITAR 1:

 

e|------------------------------------------------------------------------------------------------------------|
B|--9--9--9---10--10--10---12--12--12---12--12--12---14--14--14--14--14--14--14---10--10--10--10--10--10--10--|
G|--6--6--6---9---9---9----9---9---9----11--11--11---11--11--11--11--11--11--11---9---9---9---9---9---9---9---|
D|--6--6--6---7---7---7----9---9---9----9---9---9----11--11--11--11--11--11--11---7---7---7---7---7---7---7---|
A|------------------------------------------------------------------------------------------------------------|
E|------------------------------------------------------------------------------------------------------------|

 

GUITAR 2:

 

e|------------------------------------------------------------------------------|
B|---------7-/-9-------9--------------------------------------------------------|
G|------9-----------------11--9--11--11--9----8--9--8---------------------------|
D|--11--------------9----------------------------------9--9-/-11----9-/-11-\-9--|
A|------------------------------------------------------------------------------|
E|------------------------------------------------------------------------------|

 

GUITAR 1:

 

e|--------------------------------------------------|
B|--9--9--9---10--10--10---12--12--12---12--12--12--|
G|--6--6--6---9---9---9----9---9---9----11--11--11--|
D|--6--6--6---7---7---7----9---9---9----9---9---9---|
A|--------------------------------------------------|
E|--------------------------------------------------|

 

GUITAR 2:

 

e|-----------------------------------------------------------------|
B|---------7-/-9----------------9----------------------------------|
G|------9--------------------------11--9--11--11--9----8--9--8-----|
D|--11----------------------------------------------------------9--|
A|------------------11--11--11-------------------------------------|
E|-----------------------------------------------------------------|

 

GUITAR 1:

 

e|------------------------------------------------------------12-(NH)------------------|
B|--14--14--14--14--14--14--14---10--10--10--10--10--10--10-----------12-(NH)-12-(NH)--|
G|--11--11--11--11--11--11--11---9---9---9---9---9---9---9-----------------------------|
D|--11--11--11--11--11--11--11---7---7---7---7---7---7---7-----------------------------|
A|-------------------------------------------------------------------------------------|
E|-------------------------------------------------------------------------------------|

 

GUITAR 2:

 

e|-------------------------------------|
B|-------------------------------------|
G|----------9------9-p-8---------------|
D|--9-/-11----------------9-/-11----9--|
A|-------------------------------------|
E|-------------------------------------|

 


Second Verse/Segunda Estrofa:

 

GUITAR 1:

 

e|-------------------------------------4----------4----------0--0---0--0---0--0---7---7----7---7----7---7---|
B|--------5----------------10----------5--4-h-5---4--2-h-4---0--0---0--0---0--0---10--10---10--10---10--10--|
G|-----4-----4--3-------9------9--8----4----------4----------2--2---2--2---2--2---9---9----9---9----9---9---|
D|--2----------------7-----------------6----------4----------2--2---2--2---2--2---7---7----7---7----7---7---|
A|-------------------------------------4----------2----------0--0---0--0---0--0-----------------------------|
E|----------------------------------------------------------------------------------------------------------|

 

GUITAR 2:

 

e|--------------------------------------------------------------------|
B|--------------------------------------------------------------------|
G|--2-/-4---4-h-6-----------------------------------------------------|
D|------------------6-\-4--2----4--2--2--4-/-6--4--2--2--4-/-6--4--2--|
A|--------------------------------------------------------------------|
E|--------------------------------------------------------------------|

 

BASS:

 

G|--------------------------------------|
D|---------7---------------------2-/-7--|
A|--7-------------4----2----0-----------|
E|--------------------------------------|

 

GUITAR 1:

 

e|-------------------------------------4----------4----------0--0---0--0---0--0---7--9--5--4--7--4--2--4--0--|
B|--------5----------------10----------5--4-h-5---4--2-h-4---0--0---0--0---0--0------------------------------|
G|-----4-----4--3-------9------9--8----4----------4----------2--2---2--2---2--2------------------------------|
D|--2----------------7-----------------6----------4----------2--2---2--2---2--2------------------------------|
A|-------------------------------------4----------2----------0--0---0--0---0--0------------------------------|
E|-----------------------------------------------------------------------------------------------------------|

 

GUITAR 2:

 

e|--------------------------------------------------------------------|
B|------------------5-p-2---------------------------------------------|
G|--2-/-4---4-h-6----------4------------------------------------------|
D|------------------------------4--2--2--4-/-6--4--2--2--4-/-6--4--2--|
A|--------------------------------------------------------------------|
E|--------------------------------------------------------------------|

 

BASS:

 

G|---------------------------------------------------------------------------------------------|
D|-----------------7------7--7-------------------------------2-/-7--7--7--7--7--7--7--7--7--7--|
A|--7------7--7--------7----------4---4--4--6---6--6--7----------------------------------------|
E|------7--------------------------------------------------------------------------------------|

 


Second Chorus/Segundo Estribillo:

 

GUITAR 1:

 

e|------------------------------------------------------------------------------------------------------------|
B|--9--9--9---10--10--10---12--12--12---12--12--12---14--14--14--14--14--14--14---10--10--10--10--10--10--10--|
G|--6--6--6---9---9---9----9---9---9----11--11--11---11--11--11--11--11--11--11---9---9---9---9---9---9---9---|
D|--6--6--6---7---7---7----9---9---9----9---9---9----11--11--11--11--11--11--11---7---7---7---7---7---7---7---|
A|------------------------------------------------------------------------------------------------------------|
E|------------------------------------------------------------------------------------------------------------|

 

GUITAR 2:

 

e|------------------------------------------------------------------------------|
B|---------7-/-9-------9--------------------------------------------------------|
G|------9-----------------11--9--11--11--9----8--9--8---------------------------|
D|--11--------------9----------------------------------9--9-/-11----9-/-11-\-9--|
A|------------------------------------------------------------------------------|
E|------------------------------------------------------------------------------|

 

BASS:

 

G|------------------------------------------------------------------------------------------------------------|
D|-----------------------------------------------------1--1--1---4--4--4--4--4--4--4--6--7--7--7--7--7--7--7--|
A|--4---4--4--4---0---0--0--0-----------------2--2--2---------------------------------------------------------|
E|------------------------------0---0--0--0-------------------------------------------------------------------|

 

GUITAR 1:

 

e|--------------------------------7-----------------------|
B|--9--9--9---10--10--10---7-/-9-----9-\-7-p-5------------|
G|--6--6--6---9---9---9-------------------------8---8--8--|
D|--6--6--6---7---7---7-----------------------------------|
A|--------------------------------------------------------|
E|--------------------------------------------------------|

 

GUITAR 2:

 

e|-----------------------------------------------------------------|
B|---------7-/-9----------------9----------------------------------|
G|------9--------------------------11--9--11--11--9----8--9--8-----|
D|--11----------------------------------------------------------9--|
A|------------------11--11--11-------------------------------------|
E|-----------------------------------------------------------------|

 

BASS:

 

G|--------------------------------------------------------------|
D|-----------------------------------------------------1--1--1--|
A|--4---4--4--4---0---0--0--0-----------------2--2--2-----------|
E|------------------------------0---0--0--0---------------------|

 

GUITAR 1:

 

e|--------------------------------7-----------------------|
B|--9--9--9---10--10--10---7-/-9-----9-\-7-p-5------------|
G|--6--6--6---9---9---9-------------------------8---8--8--|
D|--6--6--6---7---7---7-----------------------------------|
A|--------------------------------------------------------|
E|--------------------------------------------------------|

 

GUITAR 2:

 

e|-------------------------------------|
B|-------------------------------------|
G|----------9------9-p-8---------------|
D|--9-/-11----------------9-/-11----9--|
A|-------------------------------------|
E|-------------------------------------|

 

BASS:

 

G|----------------------------------------------------------------------|
D|------------------------------------------------2-/-7--7---7---7---7--|
A|--------------------------0--0--0--0--0--0--0-------------------------|
E|--2--2--2--2--2--2--2--4----------------------------------------------|

 


Outro:

 

GUITAR 1:

 

e|--------------------------------------------7----------7----------5--|
B|--------5----------------10----------4-h-5------4-h-5------4-h-5-----|
G|-----4-----4--3-------9------9--8------------------------------------|
D|--2----------------7-------------------------------------------------|
A|---------------------------------------------------------------------|
E|---------------------------------------------------------------------|

 

GUITAR 2:

e|--------------------------------------------------------------------|
B|--------------------------------------------------------------------|
G|--2-/-4---4-h-6-----------------------------------------------------|
D|------------------6-\-4--2----4--2--2--4-/-6--4--2--2--4-/-6--4--2--|
A|--------------------------------------------------------------------|
E|--------------------------------------------------------------------|

 

GUITAR 1:

 

e|---------------------------------------------------------------------------7---------7-------7---|
B|--------5----------------10----------------4-h-5---------2-h-4---------10---------------10---10--|
G|-----4-----4--3-------9------9--8-----------------------------------9-------------9----------9---|
D|--2----------------7--------------------6-------------4----------7-------------7-------------7---|
A|-------------------------------------4-------------2---------------------------------------------|
E|-------------------------------------------------------------------------------------------------|

 

GUITAR 2:

 

e|--------------------------------------------------------------------|
B|--------------------------------------------------------------------|
G|--2-/-4---4-h-6-----------------------------------------------------|
D|------------------6-\-4--2----4--2--2--4-/-6--4--2--2--4-/-6--4--2--|
A|--------------------------------------------------------------------|
E|--------------------------------------------------------------------|

 

 

 

Moon on the Water - Tron544
00:00 / 00:00

©2019 by Fefe - Tron544

Sigueme en:

  • YouTube - White Circle
  • Facebook - White Circle
  • Instagram - White Circle
  • Twitter - White Circle
This site was designed with the
.com
website builder. Create your website today.
Start Now