MEMENTO

RE:ZERO KARA HAJIMERU ISEKAI SEIKATSU

TABS ~ By Fefe (Tron544)

 

Intro:

e|----------------|-------------------------------------------|
B|--13-p12--------|----------------------13-p12---------------|
G|------------12--|--14-----12-14-----12-----------12-14------|
D|---------14-----|------14--------14-----------14--------14--|
A|----------------|-------------------------------------------|
E|----------------|-------------------------------------------|

e|-------------------------------------|

B|------------------------12-----------|

G|----------12----------------12/14----|

D|--12---14------14-12-14--------------|

A|-------------------------------------|

E|-------------------------------------|

 


Verse/Estrofa:

e|---------------------------------------------------------|
B|---------------10-------------------------10-8-----------|
G|---9-9-7-9-7-9----7/9---------9-9-7-9-7-9-------9--7--9--|
D|---------------------------------------------------------|
A|---------------------------------------------------------|
E|---------------------------------------------------------|

e|----------------------------------------------------------------|
B|---------------10-----------------------------------------------|
G|---9-9-7-9-7-9----7/9---------------9-------------12------------|
D|------------------------------10-12-----12-10-9------7/9--------|
A|----------------------------------------------------------------|
E|----------------------------------------------------------------|

 


Pre-Chorus/Pre-Estribillo:

e|---------------------------------------------------|
B|----10-------------------------10------------------|
G|--------9---7-9-10-9-10-9----------9---------------|
D|---------------------------------------10-9--------|
A|---------------------------------------------------|
E|---------------------------------------------------|

e|--------------------------------------------------------------|
B|----10-----------------------------------------8-10-12--------|
G|--------9---7-9-10-9-10-9------------9-10-12------------------|
D|----------------------------7-9-10----------------------------|
A|--------------------------------------------------------------|
E|--------------------------------------------------------------|

Memento - Tron544
00:00 / 00:00
DONATE%20BUTTON%20(EN)_edited.png

Chorus/Estrofa:

e|----------------|----------------------------------------------------------------------------------|
B|--13-p12--------|----------------------13-p12-------------------------------------12-----12--------|
G|------------12--|--14-----12-14-----12-----------12-14--------------12----------------14-------12--|
D|---------14-----|------14--------14-----------14--------14--12---14------14-12-14-----------14-----|
A|----------------|----------------------------------------------------------------------------------|
E|----------------|----------------------------------------------------------------------------------|

e|----------------------------------------------------------------------------------|
B|----------------------13-p12----------------------------13----------13-p12--------|
G|--14-----12-14-----12-----------12-14------12--------------14/16--------------12--|
D|------14--------14-----------14---------14------14-12----------------------14-----|
A|----------------------------------------------------------------------------------|
E|----------------------------------------------------------------------------------|

e|----------------------------------------------------------------------------------|
B|----------------------13-p12-------------------------------------12-----12--------|
G|--14-----12-14-----12-----------12-14--------------12----------------14-------12--|
D|------14--------14-----------14--------14--12---14------14-12-14-----------14-----|
A|----------------------------------------------------------------------------------|
E|----------------------------------------------------------------------------------|

e|-------------------------------------------------------------------------|
B|----------------------13-p12-----------------------------13--------------|
G|--14-----12-14-----12-----------12-14---------12------------14/16--------|
D|------14--------14-----------14----------14------14-12-------------------|
A|-------------------------------------------------------------------------|
E|-------------------------------------------------------------------------|

©2015 by Fefe - Tron544

Sigueme en:

  • YouTube - White Circle
  • Facebook - White Circle
  • Instagram - White Circle
  • Twitter - White Circle
This site was designed with the
.com
website builder. Create your website today.
Start Now