MELISSA

FULLMETAL ALCHEMIST

CHORDS ~ By Fefe (Tron544)

 

Chords used/Acordes utilizados:

A: x.0.2.2.2.0  -  Am: x.0.2.2.1.0  -  Am/G: 3.0.2.2.1.0
Bbm: 6.8.8.6.6.6
B: x.2.4.4.4.2  -  Bm7b5: x.2.3.2.3.x
C: x.3.5.5.5.3  -  Cm: x.3.5.5.4.3
C#m: x.4.6.6.5.4
D: x.x.0.2.3.2  -  Dsus4: x.x.0.2.3.3  -  Dm: x.x.0.2.3.1

D/F#: 2.x.0.2.3.2  -  D#: x.6.8.8.8.6
E: 0.2.2.1.0.0  -  Esus4: 0.2.2.2.0.0
F: 1.3.3.2.1.1
F#: 2.4.4.3.2.2  -  F#m: 2.4.4.2.2.2
G: 3.5.5.6.3.3  -  Gm: 3.5.5.3.3.3  -  G/B: x.2.0.0.3.3
G#: 4.6.6.5.4.4

 


   A          Dm  G     C   F    Bm7b5  E   Am  
   Kimi no te de kirisaite toui hi no kioku wo
   A         Dm  G        C   G/B  Am Am/G D/F#
   Kanashimi no iki no ne wo tomete kure yo
     Dm               G/B          A
   Saa ai ni kogareta mune wo tsuranuke

 


   A             E              F#m
   Asu ga kuru hazu no sora wo mite
      D         Esus4  E        Dm       A   D
   Mayou bakari no kokoro mote amashite iru
   A              E           F#m  
   Katawara no tori ga habata ita
        D         Esus4   E     Dm      A
   Doko ka hikari wo mitsukerareta no kana

 


   G# C#m   F#      B    E        Bbm  D#      G#
   Naa... omae no sei ni ore mo nosete kurenai ka
      G Cm   F        D    Gm  Dm
   Soshite ichiban takai tokorode
C                                 Dsus4 D
   Okizari ni shite yasashisa kara touzekete

 


   A          Dm  G     C   F    Bm7b5  E   Am  
   Kimi no te de kirisaite toui hi no kioku wo
   A         Dm  G        C   G/B  Am Am/G D/F#
   Kanashimi no iki no ne wo tomete kure yo
     Dm               G/B          A
   Saa ai ni kogareta mune wo tsuranuke

Melissa - Tron544
00:00 / 00:00
DONATE%20BUTTON%20(EN)_edited.png

TABS ~ By Fefe (Tron544)

 

Intro:

 

GUITAR 1:

 

e|-----------------------------------------|-----------------------------------------|

B|--------10-------------------------------|-----------------------------------------|

G|--9--9------9--10------------12----------|----------10-------------------9---------|

D|---------------------12--12------12--14--|--10--10------10--12----10--9-----9--10--|

A|-----------------------------------------|-----------------------------------------|

E|-----------------------------------------|-----------------------------------------|

 

GUITAR 2:

 

e|----------------------------------------------------|-------------------------|

B|--10--10--10--10--10--------------------------------|-------------------------|

G|----------------------12----12--12--12--12--12--10--|---------------9---------|

D|----------------------------------------------------|--12----10--9-----9--10--|

A|----------------------------------------------------|-------------------------|

E|----------------------------------------------------|-------------------------|

 

GUITAR 1:

 

e|---------------------------------------------------|------------------------|

B|--------10-----------------------------------------|------------------------|

G|--9--9------9--10------------12------10--9------9--|------9-----------------|

D|---------------------12--12------12---------12-----|--10-----------------9--|

A|---------------------------------------------------|---------12------12-----|

E|---------------------------------------------------|------------------------|

 

GUITAR 2:

 

e|--------------------------------------------|-------------|

B|--10--10--10--10--10------------------------|-------------|

G|----------------------12------10--9------9--|------9------|

D|-------------------------------------12-----|--10---------|

A|--------------------------------------------|---------12--|

E|--------------------------------------------|-------------|

 

GUITAR 1:

 

e|---------------------------------------------------------------|

B|-----------------------------------------------------------10--|

G|----------------------------------------------12--12---12------|

D|--10--10--10--10--10--10--10--12--12--12--12-------------------|

A|---------------------------------------------------------------|

E|---------------------------------------------------------------|

 

 

Verse/Estrofa:

 

e|-------------------------------------------------|

B|-------------------------------------------------|

G|-------------------------------------------------|

D|--11--11--11--11--11--11--9--9--9--9--9--11------|

A|---------------------------------------------12--|

E|-------------------------------------------------|

 

e|----------------------------------------------------------------------|

B|----------------------------------------------------------------------|

G|----------------------------------------------------------------------|

D|------11--12---12--11--9--11---12--11--9----9--11--12--12--11--9--11--|

A|--12------------------------------------------------------------------|

E|----------------------------------------------------------------------|

 

e|-------------------------------------------------|

B|-------------------------------------------------|

G|-------------------------------------------------|

D|--11--11--11--11--11--11--9--9--9--9--9--11------|

A|---------------------------------------------12--|

E|-------------------------------------------------|

 

e|----------------------------------------------------------------------|

B|----------------------------------------------------------------------|

G|-----------------------------------------------------------9--12--11--|

D|------11--12---12--11--9--11---12--11--9----9--11--12--12-------------|

A|--12------------------------------------------------------------------|

E|----------------------------------------------------------------------|

 

 

Pre-Chorus/Pre-Estribillo:

 

e|---------------------------------|-----------------------------------------|

B|---------------------------------|-----------------------------------------|

G|------8--9----9--9--8------9--8--|--8---------8-----------------8----------|

D|--11-------------------11--------|-----11--9-----11----9--8--8-----11--10--|

A|---------------------------------|-----------------------------------------|

E|---------------------------------|-----------------------------------------|

 

e|---------------------------------|------------------------------------------|

B|---------------------------------|------------------------------------------|

G|------7--8----8--8--7------8--7--|---------7------10--10--8--10--10--10--8--|

D|--10-------------------10--------|--10--8-----------------------------------|

A|---------------------------------|------------------------------------------|

E|---------------------------------|------------------------------------------|

 

e|---------------------------------------------------|

B|---------------------------------------------------|

G|--10--10--8--10--10--10--10----10--10--10--12--12--|

D|---------------------------------------------------|

A|---------------------------------------------------|

E|---------------------------------------------------|

 

 

Chorus/Estribillo:

 

GUITAR 1:

 

e|-----------------------------------------|-----------------------------------------|

B|--------10-------------------------------|-----------------------------------------|

G|--9--9------9--10------------12----------|----------10-------------------9---------|

D|---------------------12--12------12--14--|--10--10------10--12----10--9-----9--10--|

A|-----------------------------------------|-----------------------------------------|

E|-----------------------------------------|-----------------------------------------|

 

GUITAR 2:

 

e|----------------------------------------------------|-------------------------|

B|--10--10--10--10--10--------------------------------|-------------------------|

G|----------------------12----12--12--12--12--12--10--|---------------9---------|

D|----------------------------------------------------|--12----10--9-----9--10--|

A|----------------------------------------------------|-------------------------|

E|----------------------------------------------------|-------------------------|

 

GUITAR 1:

 

e|---------------------------------------------------|------------------------|

B|--------10-----------------------------------------|------------------------|

G|--9--9------9--10------------12------10--9------9--|------9-----------------|

D|---------------------12--12------12---------12-----|--10-----------------9--|

A|---------------------------------------------------|---------12------12-----|

E|---------------------------------------------------|------------------------|

 

GUITAR 2:

 

e|--------------------------------------------|-------------|

B|--10--10--10--10--10------------------------|-------------|

G|----------------------12------10--9------9--|------9------|

D|-------------------------------------12-----|--10---------|

A|--------------------------------------------|---------12--|

E|--------------------------------------------|-------------|

 

GUITAR 1:

 

e|---------------------------------------------------------------|

B|-----------------------------------------------------------10--|

G|----------------------------------------------12--12---12------|

D|--10--10--10--10--10--10--10--12--12--12--12-------------------|

A|---------------------------------------------------------------|

E|---------------------------------------------------------------|

©2015 by Fefe - Tron544

Sigueme en:

  • YouTube - White Circle
  • Facebook - White Circle
  • Instagram - White Circle
  • Twitter - White Circle
This site was designed with the
.com
website builder. Create your website today.
Start Now