~ MEGUMERU ~

TABLATURAS ~ By Fefe - Tron544

 

Verse/Estrofa:

 

e|-----------5------------------------------|

B|------------------------------------------|

G|--7--6--7-----6------6--7--6--4-----4--4--|

D|---------------------------------7--------|

A|------------------------------------------|

E|------------------------------------------|

 

e|-----------5---------------------|

B|---------------------------------|

G|--7--6--7-----6---------------4--|

D|---------------------7--7--6-----|

A|---------------------------------|

E|---------------------------------|

 

e|-----------5------------------------------|-----------5----------------------5--6--5--5-----|

B|------------------------------------------|---------------------5---5--6--8--------------6--|

G|--7--6--7-----6------6--7--6--4-----4--4--|--7--6--7-----7---7------------------------------|

D|---------------------------------7--------|-------------------------------------------------|

A|------------------------------------------|-------------------------------------------------|

E|------------------------------------------|-------------------------------------------------|

 

 

Pre-Chorus/Pre-Estribillo:

 

e|--5-------8---------5-------10--8-----|------------------------------|

B|-------8-----6-----------8---------6--|--6--6---8--9--8-----------6--|

G|--------------------------------------|------------------8--5--8-----|

D|--------------------------------------|------------------------------|

A|--------------------------------------|------------------------------|

E|--------------------------------------|------------------------------|

 

 

Chorus/Estribillo:

 

e|----------5---------10----------5--------------|----------------8--7------------5-----------|

B|--7----8-----5----------8----8--------5--------|--7----8--7-----------8---7--8-----5--7--7--|

G|-----------------------------------7-----7--7--|-------------7------------------------------|

D|-----------------------------------------------|--------------------------------------------|

A|-----------------------------------------------|--------------------------------------------|

E|-----------------------------------------------|--------------------------------------------|

 

e|----------5---------10----------5--------------|----------------8--7------------5-----|

B|--7----8-----5----------8----8--------5--------|--7----8--7-----------8---7--8-----5--|

G|-----------------------------------7-----7--7--|-------------7------------------------|

D|-----------------------------------------------|--------------------------------------|

A|-----------------------------------------------|--------------------------------------|

E|-----------------------------------------------|--------------------------------------|

 

 

Outro:

 

e|------------------------------|------------------------------|---------------|

B|--5-----8--8------------8--8--|--------8--8------------8--8--|--7--7--7-h-8--|

G|-----7------------7--7--------|--7--7------------7--7--------|---------------|

D|------------------------------|------------------------------|---------------|

A|------------------------------|------------------------------|---------------|

E|------------------------------|------------------------------|---------------|

 

Megumeru - Tron544
00:00 / 00:00

©2019 by Fefe - Tron544

Sigueme en:

  • YouTube - White Circle
  • Facebook - White Circle
  • Instagram - White Circle
  • Twitter - White Circle
This site was designed with the
.com
website builder. Create your website today.
Start Now