~ MASTERPIECE ~

TABLATURAS ~ By Fefe - Tron544
 

Intro: x4

e|-----------------------------------------------------------|
B|-----------------------------------------------------------|
G|-----------------------------------------------------------|
D|-------4---------4-----------------4---------4-------------|
A|-----------------------------------------------------------|
E|--2--0----0-2--0----0-2-0-0-0-2--0----0-2--0----0-2-0-0-0--|


1st Verse/1era Estrofa:

e|--------------------------------------|
B|--------------------------------------|
G|--------------------4--------6--------|
D|--4--------2--------4--------6--------|
A|--4--------2--------2--------4--------|
E|--2--------0--------------------------|

e|-----------------------------------------------|
B|-----------------------------------------------|
G|--------------------4--------------------------|
D|--4--------2--------4--------------------------|
A|--4--------2--------2-----------2-1-2-1-2-1----|
E|--2--------0-------------12\----------------0--|

e|-----------------------------------------------------------------------|
B|-----------------------------------------------------------------------|
G|----------------------------------4-x-x-4-x-4-x-4-x-6-x-x-6-x-x-x-6-x--|
D|--4-x-x-4-x-4-x-2-x-x-2-x-x-x-2-x-4-x-x-4-x-4-x-4-x-6-x-x-6-x-x-x-6-x--|
A|--4-x-x-4-x-4-x-2-x-x-2-x-x-x-2-x-2-x-x-2-x-2-x-2-x-4-x-x-4-x-x-x-4-x--|
E|--2-x-x-2-x-2-x-0-x-x-0-x-x-x-0-x--------------------------------------|

e|-----------------------------------------------------------------|
B|-----------------------------------------------------------------|
G|-----------------------------------------------------------------|
D|--4-x-x-4-x-4-x-2-x-x-2-x-x-x-2-x--------------------------------|
A|--4-x-x-4-x-4-x-2-x-x-2-x-x-x-2-x--2-1-2-1-2-1----2-1-2-1-2-1----|
E|--2-x-x-2-x-2-x-0-x-x-0-x-x-x-0-x--------------0--------------0--|

 


1st Pre-Chorus/1er Pre-Estribillo:

e|---------------------------------------------------------|
B|---------------------------------------------------------|
G|--8--8--8-8-8-8--8--8--8-8-8-7--7--7-7-7-7--7-7-7--7--7--|
D|--8--8--8-8-8-8--8--8--8-8-8-8--8--8-8-8-8--8-8-8--8--8--|
A|--6--6--6-6-6-6--6--6--6-6-6-5--5--5-5-5-5--5-5-5--5--5--|
E|---------------------------------------------------------|

e|---------------------------------------------------------------|
B|---------------------------------------------------------------|
G|--6--6--6-6-6-6--6--6--6-6-6-5-x-x-x-x-x-x-x--5-5-5-5-5-5-5-5--|
D|--8--8--8-8-8-8--8--8--8-8-8-6-x-x-x-x-x-x-x--6-6-6-6-6-6-6-6--|
A|--4--4--4-4-4-4--4--4--4-4-4-3-x-x-x-x-x-x-x--3-3-3-3-3-3-3-3--|
E|---------------------------------------------------------------|

e|--------------------------------------------------------|
B|--------------------------------------------------------|
G|--4----4--4-4-#-4-4--4--4-4--8----8--8-8-#-6-6--6--6-6--|
D|--4----4--4-4-#-4-4--4--4-4--8----8--8-8-#-6-6--6--6-6--|
A|--2----2--2-2-#-2-2--2--2-2--6----6--6-6-#-4-4--4--4-4--|
E|--------------------------------------------------------|

e|------------------------------------------------|
B|------------------------------------------------|
G|--4----4--4-4-#-4-4--4--4-4---------------------|
D|--4----4--4-4-#-4-4--4--4-4--6---8----9---------|
A|--2----2--2-2-#-2-2--2--2-2--6---8----9---------|
E|-----------------------------4---6----7---------|

 


1st Chorus/1er Estribillo:

e|---------------------------------------------------------|
B|---------------------------------------------------------|
G|--------------6--6-6-6--6-6--4-3-4-3-4-3--4--3-4-3-4-3---|
D|--4--4-4--4-#-6--6-6-6--6-6------------------------------|
A|--4--4-4--4-#-4--4-4-4--4-4--2-1-2-1-2-1--2--1-2-1-2-1---|
E|--2--2-2--2-#--------------------------------------------|

e|---------------------------------------------------------|
B|---------------------------------------------------------|
G|--------------6--6-6-6--6-6--4-3-4-3-4-3--4--3-4-3-4-3---|
D|--4--4-4--4-#-6--6-6-6--6-6------------------------------|
A|--4--4-4--4-#-4--4-4-4--4-4--2-1-2-1-2-1--2--1-2-1-2-1---|
E|--2--2-2--2-#--------------------------------------------|

e|----------------------------------------------------------|
B|----------------------------------------------------------|
G|--8--8-8-8-8-#-6--6-6-6--6-6--4--4-4-4-4-#-3--3-3-3--3-3--|
D|--8--8-8-8-8-#-6--6-6-6--6-6--4--4-4-4-4-#-4--4-4-4--4-4--|
A|--6--6-6-6-6-#-4--4-4-4--4-4--2--2-2-2-2-#-1--1-1-1--1-1--|
E|----------------------------------------------------------|

e|-----------------------------------------------------------|
B|-----------------------------------------------------------|
G|-----------------------------6--6-6-6-6--------------------|
D|--6--6-6-6-6-4-6--4-6---4-6--6--6-6-6-6--------------------|
A|--6--6-6-6-6-4-6--4-6---4-6--4--4-4-4-4--4--2-1-2-1--------|
E|--4--4-4-4-4-2-4--2-4---2-4-------------------------4-2-1--|

e|--------------------------------------------------------|
B|--------------------------------------------------------|
G|--------------6--6-6-6--6-6--4--4-4--4-#-4--4-4-4--4-4--|
D|--4--4-4--4-#-6--6-6-6--6-6--4--4-4--4-#-4--4-4-4--4-4--|
A|--4--4-4--4-#-4--4-4-4--4-4--2--2-2--2-#-2--2-2-2--2-2--|
E|--2--2-2--2-#-------------------------------------------|

e|--------------------------------------------------------|
B|--------------------------------------------------------|
G|--8--8-8--8-#-6--6-6-6--6-6--4--4-4--4-#-6--6-#-7--7-7--|
D|--8--8-8--8-#-6--6-6-6--6-6--4--4-4--4-#-6--6-#-8--8-8--|
A|--6--6-6--6-#-4--4-4-4--4-4--2--2-2--2-#-4--4-#-5--5-5--|
E|--------------------------------------------------------|

e|----------------------------------------------------------|
B|----------------------------------------------------------|
G|--8--8-8-8-8-#-6--6-6-6--6-6--4--4-4-4-4-#-3--3-3-3--3-3--|
D|--8--8-8-8-8-#-6--6-6-6--6-6--4--4-4-4-4-#-4--4-4-4--4-4--|
A|--6--6-6-6-6-#-4--4-4-4--4-4--2--2-2-2-2-#-1--1-1-1--1-1--|
E|----------------------------------------------------------|

e|----------------------------------------------------------|
B|----------------------------------------------------------|
G|-----------------------------6--6-6-6-6-6-6-6-6-6-6-6-6---|
D|--6--6-6-6-6-4-6--4-6---4-6--6--6-6-6-6-6-6-6-6-6-6-6-6---|
A|--6--6-6-6-6-4-6--4-6---4-6--4--4-4-4-4-4-4-4-4-4-4-4-4---|
E|--4--4-4-4-4-2-4--2-4---2-4-------------------------------|

 


Re-Intro: x2

e|-----------------------------------------------------------|
B|-----------------------------------------------------------|
G|-----------------------------------------------------------|
D|-------4---------4-----------------4---------4-------------|
A|-----------------------------------------------------------|
E|--2--0----0-2--0----0-2-0-0-0-2--0----0-2--0----0-2-0-0-0--|


2nd Verse/2da Estrofa:

e|--------------------------------------|
B|--------------------------------------|
G|--------------------4--------6--------|
D|--4--------2--------4--------6--------|
A|--4--------2--------2--------4--------|
E|--2--------0--------------------------|

e|--------------------------------------------------|
B|--------------------------------------------------|
G|--------------------------------------------------|
D|--4--------2--------------------------------------|
A|--4--------2--------2-1-2-1-2-1----2-1-2-1-2-1----|
E|--2--------0--------------------0--------------0--|

e|-----------------------------------------------------------------------|
B|-----------------------------------------------------------------------|
G|----------------------------------4-x-x-4-x-4-x-4-x-6-x-x-6-x-x-x-6-x--|
D|--4-x-x-4-x-4-x-2-x-x-2-x-x-x-2-x-4-x-x-4-x-4-x-4-x-6-x-x-6-x-x-x-6-x--|
A|--4-x-x-4-x-4-x-2-x-x-2-x-x-x-2-x-2-x-x-2-x-2-x-2-x-4-x-x-4-x-x-x-4-x--|
E|--2-x-x-2-x-2-x-0-x-x-0-x-x-x-0-x--------------------------------------|

e|-----------------------------------------------------------------|
B|-----------------------------------------------------------------|
G|-----------------------------------------------------------------|
D|--4-x-x-4-x-4-x-2-x-x-2-x-x-x-2-x--------------------------------|
A|--4-x-x-4-x-4-x-2-x-x-2-x-x-x-2-x--2-1-2-1-2-1----2-1-2-1-2-1----|
E|--2-x-x-2-x-2-x-0-x-x-0-x-x-x-0-x--------------0--------------0--|


2nd Pre-Chorus/2do Pre-Estribillo:

e|---------------------------------------------------------|
B|---------------------------------------------------------|
G|--8--8--8-8-8-8--8--8--8-8-8-7--7--7-7-7-7--7-7-7--7--7--|
D|--8--8--8-8-8-8--8--8--8-8-8-8--8--8-8-8-8--8-8-8--8--8--|
A|--6--6--6-6-6-6--6--6--6-6-6-5--5--5-5-5-5--5-5-5--5--5--|
E|---------------------------------------------------------|

e|---------------------------------------------------------------|
B|---------------------------------------------------------------|
G|--6--6--6-6-6-6--6--6--6-6-6-5-x-x-x-x-x-x-x--5-5-5-5-5-5-5-5--|
D|--8--8--8-8-8-8--8--8--8-8-8-6-x-x-x-x-x-x-x--6-6-6-6-6-6-6-6--|
A|--4--4--4-4-4-4--4--4--4-4-4-3-x-x-x-x-x-x-x--3-3-3-3-3-3-3-3--|
E|---------------------------------------------------------------|

e|-------------------------------------------------------|
B|-------------------------------------------------------|
G|--4----4--4-4-#-4-4--4--4-4--8----8--8-8-#-6-6---------|
D|--4----4--4-4-#-4-4--4--4-4--8----8--8-8-#-6-6---------|
A|--2----2--2-2-#-2-2--2--2-2--6----6--6-6-#-4-4---------|
E|------------------------------------------------12\----|

e|--------------------------------------------7-7-7-7-7-7-7-7-9-9-9-9-9-9-9-9--|
B|-----------------------------------------------------------------------------|
G|--11--11-11-11-10-10-10-10-10-10-10-6-6-6-6-4-4-4-4-4-4-4-4-6-6-6-6-6-6-6-6--|
D|-----------------------------------------------------------------------------|
A|--9---9--9--9--8--8--8--8--8--8--8--4-4-4-4----------------------------------|
E|-----------------------------------------------------------------------------|


Bridge/Puente:

e|--------------------------------------------------------|
B|--------------------------------------------------------|
G|--4----4--4-4-#-4-4--4--4-4-----------------------------|
D|--4----4--4-4-#-4-4--4--4-4--4----4--4-4-#-4-4--4--4-4--|
A|--2----2--2-2-#-2-2--2--2-2--4----4--4-4-#-4-4--4--4-4--|
E|-----------------------------2----2--2-2-#-2-2--2--2-2--|

e|---------------------------------------------------------|
B|---------------------------------------------------------|
G|--6----6--6-6-#-6-6--6--6-6--8----8--8-8-#-8-8--6-6-6-6--|
D|--6----6--6-6-#-6-6--6--6-6--8----8--8-8-#-8-8--6-6-6-6--|
A|--4----4--4-4-#-4-4--4--4-4--6----6--6-6-#-6-6--4-4-4-4--|
E|---------------------------------------------------------|

e|-----------------------------------------------------------|
B|-----------------------------------------------------------|
G|--4--4-4--4-4-4---------------6--6-6--6-6-6-8--8-8--8-8-8--|
D|--4--4-4--4-4-4-4--4-4--4-4-4-6--6-6--6-6-6-8--8-8--8-8-8--|
A|--2--2-2--2-2-2-4--4-4--4-4-4-4--4-4--4-4-4-6--6-6--6-6-6--|
E|----------------2--2-2--2-2-2------------------------------|

e|-------------------------------------------------|
B|-------------------------------------------------|
G|--4--4-4--4-4-4----------------------------------|
D|--4--4-4--4-4-4-4--4-4--4-4-4-6---8----9---------|
A|--2--2-2--2-2-2-4--4-4--4-4-4-6---8----9---------|
E|----------------2--2-2--2-2-2-4---6----7---------|

 


2nd Chorus/2do Estribillo:

e|--------------------------------------------------|
B|--------------------------------------------------|
G|----------6-----------4-3-4-3-4-3--4--3-4-3-4-3---|
D|--4-------6---------------------------------------|
A|--4-------4-----------2-1-2-1-2-1--2--1-2-1-2-1---|
E|--2--------------12\------------------------------|

e|---------------------------------------------------------|
B|---------------------------------------------------------|
G|--------------6--6-6-6--6-6--4-3-4-3-4-3--4--3-4-3-4-3---|
D|--4--4-4--4-#-6--6-6-6--6-6------------------------------|
A|--4--4-4--4-#-4--4-4-4--4-4--2-1-2-1-2-1--2--1-2-1-2-1---|
E|--2--2-2--2-#--------------------------------------------|

e|----------------------------------------------------------|
B|----------------------------------------------------------|
G|--8--8-8-8-8-#-6--6-6-6--6-6--4--4-4-4-4-#-3--3-3-3--3-3--|
D|--8--8-8-8-8-#-6--6-6-6--6-6--4--4-4-4-4-#-4--4-4-4--4-4--|
A|--6--6-6-6-6-#-4--4-4-4--4-4--2--2-2-2-2-#-1--1-1-1--1-1--|
E|----------------------------------------------------------|

e|-----------------------------------------------------------|
B|-----------------------------------------------------------|
G|-----------------------------6--6-6-6-6--------------------|
D|--6--6-6-6-6-4-6--4-6---4-6--6--6-6-6-6--------------------|
A|--6--6-6-6-6-4-6--4-6---4-6--4--4-4-4-4--4--2-1-2-1--------|
E|--4--4-4-4-4-2-4--2-4---2-4-------------------------4-2-1--|

e|--------------------------------------------------------|
B|--------------------------------------------------------|
G|--------------6--6-6-6--6-6--4--4-4--4-#-4--4-4-4--4-4--|
D|--4--4-4--4-#-6--6-6-6--6-6--4--4-4--4-#-4--4-4-4--4-4--|
A|--4--4-4--4-#-4--4-4-4--4-4--2--2-2--2-#-2--2-2-2--2-2--|
E|--2--2-2--2-#-------------------------------------------|

e|--------------------------------------------------------|
B|--------------------------------------------------------|
G|--8--8-8--8-#-6--6-6-6--6-6--4--4-4--4-#-6--6-#-7--7-7--|
D|--8--8-8--8-#-6--6-6-6--6-6--4--4-4--4-#-6--6-#-8--8-8--|
A|--6--6-6--6-#-4--4-4-4--4-4--2--2-2--2-#-4--4-#-5--5-5--|
E|--------------------------------------------------------|

e|----------------------------------------------------------|
B|----------------------------------------------------------|
G|--8--8-8-8-8-#-6--6-6-6--6-6--4--4-4-4-4-#-3--3-3-3--3-3--|
D|--8--8-8-8-8-#-6--6-6-6--6-6--4--4-4-4-4-#-4--4-4-4--4-4--|
A|--6--6-6-6-6-#-4--4-4-4--4-4--2--2-2-2-2-#-1--1-1-1--1-1--|
E|----------------------------------------------------------|

e|----------------------------------------------------------|
B|----------------------------------------------------------|
G|-----------------------------6--6-6-6-6-6-6-6-6-6-6-6-6---|
D|--6--6-6-6-6-4-6--4-6---4-6--6--6-6-6-6-6-6-6-6-6-6-6-6---|
A|--6--6-6-6-6-4-6--4-6---4-6--4--4-4-4-4-4-4-4-4-4-4-4-4---|
E|--4--4-4-4-4-2-4--2-4---2-4-------------------------------|


Outro: x4

 

e|-----------------------------------------------------------|
B|-----------------------------------------------------------|
G|-----------------------------------------------------------|
D|-------4---------4-----------------4---------4-------------|
A|-----------------------------------------------------------|
E|--2--0----0-2--0----0-2-0-0-0-2--0----0-2--0----0-2-0-0-0--|

Masterpiece - Tron544
00:00 / 00:00

©2019 by Fefe - Tron544

Sigueme en:

  • YouTube - White Circle
  • Facebook - White Circle
  • Instagram - White Circle
  • Twitter - White Circle
This site was designed with the
.com
website builder. Create your website today.
Start Now