MAKE MY STORY

My HERO ACADEMIA

TABS ~ By Fefe (Tron544)

 

Intro:

GUITAR (Lead):

eb|------------------------------------------------------|
Bb|------------------------------------------------------|
Gb|------------------------------------------------------|
Db|-----------------5------------------------------------|
Ab|----5-h-7--5-h-7----7--5-h-7----5-h-7--5-h-7----------|
Eb|--0---------------------------0--------------7--5--3--|

eb|----------------------------------------------------------|
Bb|----------------------------------------------------------|
Gb|----------------------------------------------------------|
Db|-----------------5---------------------------5--7--7-/-9--|
Ab|----5-h-7--5-h-7----7--5-h-7----5-h-7--5-h-7--------------|
Eb|--0---------------------------0---------------------------|

GUITAR (Vocals):

eb|---------------|
Bb|---------------|
Gb|--9--9--9-7-9--|
Db|---------------|
Ab|---------------|
Eb|---------------|

GUITAR (Harmony):

eb|--------------------------------------12--12--12-10-12--|
Bb|--12--10---------12--10-----12--10----------------------|
Gb|---------9--9--9--------9----------9--------------------|
Db|--------------------------------------------------------|
Ab|--------------------------------------------------------|
Eb|--------------------------------------------------------|

GUITAR (Rhythm):

eb|-----------------------------------------------------------------------------|
Bb|---------------8-------------------------------------------------8-----------|
Gb|--7-h-9--7-h-9----9--7-h-9---7-h-9--7-h-9-----------7-h-9--7-h-9---9--7-h-9--|
Db|------------------------------------------9--7--5----------------------------|
Ab|-----------------------------------------------------------------------------|
Eb|-----------------------------------------------------------------------------|

GUITAR (Lead):

eb|----------------------------------------------------------------------------------|
Bb|----------------------------------------------------------------------------------|
Gb|----------------------------------------------------------------------------------|
Db|-----------------5---------------------------------------------------5------------|
Ab|----5-h-7--5-h-7----7--5-h-7----5-h-7--5-h-7------------5-h-7--5-h-7----7--5-h-7--|
Eb|--0---------------------------0--------------7--5--3--0---------------------------|

GUITAR (Rhythm):

eb|--------------------------------------------------------------|
Bb|--------------------------------------------------------------|
Gb|-----------------7--7-7--7-7-7--------------------------------|
Db|--2--2-2--2-2-2--7--7-7--7-7-7--7--7-7--7-7-7--7--7-7--7-7-7--|
Ab|--2--2-2--2-2-2--5--5-5--5-5-5--7--7-7--7-7-7--7--7-7--7-7-7--|
Eb|--0--0-0--0-0-0-----------------5--5-5--5-5-5--5--5-5--5-5-5--|

GUITAR (Lead):

eb|--------------------------------------------------------------------------10-12--|
Bb|--10-b-r--9------10-b-r--9---------8----10-b-r--9------10-b-r--9-------12--------|
Gb|------------9--9-----------9--7--9---9------------9--9-----------9--7------------|
Db|---------------------------------------------------------------------------------|
Ab|---------------------------------------------------------------------------------|
Eb|---------------------------------------------------------------------------------|


Verse/Estrofa:

GUITAR (Vocals):

eb|--------------------------------------------------------------------------|
Bb|--8-8-7-8-7-----------------9-9-7-----8-8-8-8-7---------------------------|
Gb|------------9-9---9-7-9-7-9--------9------------9-9-----------------------|
Db|-----------------------------------------------------9-7-9-7-9-7-5-7-/-9--|
Ab|--------------------------------------------------------------------------|
Eb|--------------------------------------------------------------------------|

GUITAR (Rhythm):

eb|----------------------------------------------------|
Bb|----------------------------------------------------|
Gb|-------------7----7---------------------------------|
Db|--2----2--5--7----7--7--2----2--5--7----#-#-7--#-9--|
Ab|--2----2--5--5----5--7--2----2--5--7----#-#-7--#-9--|
Eb|--0----0--3----------5--0----0--3--5----#-#-5--#-7--|

GUITAR (Lead):

eb|---------------------------------------------------------------------------------|
Bb|---------------------------10-b-r-p-8--------10-10-/-12-10-10-/-12-10-8-10-/-12--|
Gb|---------7--#-8-#-#-9-----------------9------------------------------------------|
Db|--2------------------------------------------------------------------------------|
Ab|--2------------------------------------------------------------------------------|
Eb|--0------------------------------------------------------------------------------|

GUITAR (Vocals):

eb|-----------------------------------------7---------|
Bb|------------------8--------------------8---10-8----|
Gb|--7-7-9-7-9-7-9-7---9----------7-9-7-9----------7--|
Db|---------------------------------------------------|
Ab|---------------------------------------------------|
Eb|---------------------------------------------------|

GUITAR (Harmony):

eb|----------------------------------|
Bb|----------------------------------|
Gb|--9-9-9-7--9----------9-9-9-7--9--|
Db|----------------------------------|
Ab|----------------------------------|
Eb|----------------------------------|

GUITAR (Rhythm):

eb|----------------------------------------------------|
Bb|----------------------------------------------------|
Gb|-------------7----7---------------------------------|
Db|--2----2--5--7----7--7--2----2--5--7----#-#-7--#-9--|
Ab|--2----2--5--5----5--7--2----2--5--7----#-#-7--#-9--|
Eb|--0----0--3----------5--0----0--3--5----#-#-5--#-7--|

GUITAR (Lead):

eb|---------------------------------------------------------------------------|
Bb|-----------------------------------------10--#-12-#-#------------8-10--12--|
Gb|--7h9p7h9p7h9p7h9p7h9p7h9p7h9p7h9p7-9--------#----#-#-9----9-7-9-----------|
Db|---------------------------------------------------------------------------|
Ab|---------------------------------------------------------------------------|
Eb|---------------------------------------------------------------------------|

 


Pre-Chorus/Pre-Estribillo:

GUITAR (Vocals):

eb|---------------------------------|
Bb|----------------8-7--------------|
Gb|--9-9--9-7-9--9------9-7-9--7-9--|
Db|---------------------------------|
Ab|---------------------------------|
Eb|---------------------------------|

GUITAR (Harmony):

eb|----------------------------------------|
Bb|--8-8--8-7-8--8-10-/-12-10--8-7-8--7-8--|
Gb|----------------------------------------|
Db|----------------------------------------|
Ab|----------------------------------------|
Eb|----------------------------------------|

GUITAR (Rhythm):

eb|-----------------------------------|
Bb|-----------------------------------|
Gb|--9-9-#-9-----------------7-7-#-7--|
Db|--9-9-#-9-5-5-#-5-7-7-#-7-7-7-#-7--|
Ab|--7-7-#-7-5-5-#-5-7-7-#-7-5-5-#-5--|
Eb|----------3-3-#-3-5-5-#-5----------|

GUITAR (Lead):

eb|--------------------------------------------------------------------|
Bb|----#-#-#---#-#-#-------#-8-#-8----#-#-------#-#-------#-8-#-8---#--|
Gb|--9-#-#-#-9-#-#-#-7-h-9-#---#---9--#-#-9--9--#-#-7-h-9-#---#---9-#--|
Db|--------------------------------------------------------------------|
Ab|--------------------------------------------------------------------|
Eb|--------------------------------------------------------------------|

GUITAR (Harmony):

eb|---------------------------|
Bb|--12--10---------12--10----|
Gb|---------9--9--9--------9--|
Db|---------------------------|
Ab|---------------------------|
Eb|---------------------------|

GUITAR (Rhythm):

eb|-----------------------------------|
Bb|-----------------------------------|
Gb|--9-9-#-9-----------------7-7-#-7--|
Db|--9-9-#-9-5-5-#-5-7-7-#-7-7-7-#-7--|
Ab|--7-7-#-7-5-5-#-5-7-7-#-7-5-5-#-5--|
Eb|----------3-3-#-3-5-5-#-5----------|

GUITAR (Lead):

eb|--------------------------------------------------------------------|
Bb|----#-#-#---#-#-#-------#-8-----------#-8-----#-#----#-#-------#-#--|
Gb|--9-#-#-#-9-#-#-#-7-h-9-#----9--7-h-9-#----9--#-#-9--#-#-9--9--#-#--|
Db|--------------------------------------------------------------------|
Ab|--------------------------------------------------------------------|
Eb|--------------------------------------------------------------------|

GUITAR (Vocals):

eb|---------------------------------|
Bb|----------------8-7--------------|
Gb|--9-9--9-7-9--9------9-7-9--7-9--|
Db|---------------------------------|
Ab|---------------------------------|
Eb|---------------------------------|

GUITAR (Harmony):

eb|----------------------------------------|
Bb|--8-8--8-7-8--8-10-/-12-10--8-7-8--7-8--|
Gb|----------------------------------------|
Db|----------------------------------------|
Ab|----------------------------------------|
Eb|----------------------------------------|

GUITAR (Rhythm):

eb|-----------------------------------|
Bb|-----------------------------------|
Gb|--9-9-#-9-----------------7-7-#-7--|
Db|--9-9-#-9-5-5-#-5-7-7-#-7-7-7-#-7--|
Ab|--7-7-#-7-5-5-#-5-7-7-#-7-5-5-#-5--|
Eb|----------3-3-#-3-5-5-#-5----------|

GUITAR (Lead):

eb|--------------------------------------------------------------|
Bb|----#-#-#---#-#-#-------#-8-#-8----#-#-------#-#-10-b--10--8--|
Gb|--9-#-#-#-9-#-#-#-7-h-9-#---#---9--#-#-9--9--#-#--------------|
Db|--------------------------------------------------------------|
Ab|--------------------------------------------------------------|
Eb|--------------------------------------------------------------|

GUITAR (Vocals):

eb|--------------------------|
Bb|----------12-10-----------|
Gb|--9--9--9------------9-9--|
Db|--------------------------|
Ab|--------------------------|
Eb|--------------------------|

GUITAR (Rhythm):

eb|-------------------------------------------|
Bb|-------------------------------------------|
Gb|--9-9-#-9----------------------------------|
Db|--9-9-#-9-5-5-#-5-7-7-7-7-7-7-7-7-7-7-7-7--|
Ab|--7-7-#-7-5-5-#-5-7-7-7-7-7-7-7-7-7-7-7-7--|
Eb|----------3-3-#-3-5-5-5-5-5-5-5-5-5-5-5-5--|

GUITAR (Lead):

eb|-----------------------------------------------------------------------------------|
Bb|----#-#-#---#-#-#-------#-8-#-8----#-#-------#-#-------#-8-#-8---------------------|
Gb|--9-#-#-#-9-#-#-#-7-h-9-#---#---9--#-#-9--9--#-#-7-h-9-#---#---9--9-9-9-9-9-9-9-9--|
Db|-----------------------------------------------------------------------------------|
Ab|-----------------------------------------------------------------------------------|
Eb|-----------------------------------------------------------------------------------|

Make my story - Tron544
00:00 / 00:00
DONATE%20BUTTON%20(EN)_edited.png

Chorus/Estribillo:

GUITAR (Vocals):

eb|------------------------|
Bb|----7-9--9-9-/-10-9-----|
Gb|--9------------------9--|
Db|------------------------|
Ab|------------------------|
Eb|------------------------|

GUITAR (Harmony):

eb|----------|-----10-/-12----------------9--------|
Bb|--10--10--|--9-------------9-10-12--12---12--9--|
Gb|----------|-------------------------------------|
Db|----------|-------------------------------------|
Ab|----------|-------------------------------------|
Eb|----------|-------------------------------------|

GUITAR (Rhythm):

eb|----------------------------------------------------------|
Bb|----------------------------------------------------------|
Gb|----------------------------------------------------------|
Db|--2--2--2--2-2-2-2-2--2--2-2--2--2--2--2-2-2-2-2--2--2-2--|
Ab|--2--2--2--2-2-2-2-2--2--2-2--2--2--2--2-2-2-2-2--2--2-2--|
Eb|--0--0--0--0-0-0-0-0--0--0-0--0--0--0--0-0-0-0-0--0--0-0--|

GUITAR (Lead 1):

eb|-------------|
Bb|--9----------|
Gb|------9------|
Db|----------9--|
Ab|-------------|
Eb|-------------|

GUITAR (Lead 2):

eb|--------------|
Bb|--12---9------|
Gb|-----------9--|
Db|--------------|
Ab|--------------|
Eb|--------------|

GUITAR (Vocals):

eb|----------------------------|
Bb|--7-9----7-9----------------|
Gb|-------9------9-9------9-9--|
Db|----------------------------|
Ab|----------------------------|
Eb|----------------------------|

GUITAR (Harmony):

eb|------------------------|
Bb|--10-12--9-10-12--9-10--|
Gb|------------------------|
Db|------------------------|
Ab|------------------------|
Eb|------------------------|

GUITAR (Rhythm):

eb|---------------------------------------------------------|
Bb|---------------------------------------------------------|
Gb|--7--7--7--7-7-7-7-7--7--7-7-7--7--7--7-7-7-7-7--7--7-7--|
Db|--7--7--7--7-7-7-7-7--7--7-7-7--7--7--7-7-7-7-7--7--7-7--|
Ab|--5--5--5--5-5-5-5-5--5--5-5-5--5--5--5-5-5-5-5--5--5-5--|
Eb|---------------------------------------------------------|

GUITAR (Lead 1):

eb|-------------|
Bb|--9----------|
Gb|------9------|
Db|----------9--|
Ab|-------------|
Eb|-------------|

GUITAR (Lead 2):

eb|--------------|
Bb|--12---9------|
Gb|-----------9--|
Db|--------------|
Ab|--------------|
Eb|--------------|

GUITAR (Vocals):

eb|---------------------------------------------|
Bb|---------------------------------------------|
Gb|--9-/-12--12-11--9--9-9-/-12-12-12-11--9--9--|
Db|---------------------------------------------|
Ab|---------------------------------------------|
Eb|---------------------------------------------|

GUITAR (Rhythm):

eb|---------------------------------------------------------|
Bb|---------------------------------------------------------|
Gb|---------------------------------------------------------|
Db|--7--7--7--7-7-7-7-7--7--7-7-7--7--7--7-7-7-7-7--7--7-7--|
Ab|--7--7--7--7-7-7-7-7--7--7-7-7--7--7--7-7-7-7-7--7--7-7--|
Eb|--5--5--5--5-5-5-5-5--5--5-5-5--5--5--5-5-5-5-5--5--5-5--|

GUITAR (Lead 1):

eb|----------------|
Bb|------------10--|
Gb|--------9-------|
Db|--11------------|
Ab|----------------|
Eb|----------------|

GUITAR (Lead 2):

eb|----------9--|
Bb|--10---------|
Gb|-------------|
Db|-------------|
Ab|-------------|
Eb|-------------|

GUITAR (Vocals):

eb|------------------------------------|
Bb|-----------------------10-/-12--10--|
Gb|-------9-9----------9---------------|
Db|--10---------10-10------------------|
Ab|------------------------------------|
Eb|------------------------------------|

GUITAR (Harmony):

eb|---------------|
Bb|--10-/-12--10--|
Gb|---------------|
Db|---------------|
Ab|---------------|
Eb|---------------|

GUITAR (Rhythm):

eb|---------------------------------------------------------|
Bb|---------------------------------------------------------|
Gb|--5--5--5--5-5-5-5-5--5--5-5-7--7--7--7-7-7-7-7--7--7-7--|
Db|--5--5--5--5-5-5-5-5--5--5-5-7--7--7--7-7-7-7-7--7--7-7--|
Ab|--3--3--3--3-3-3-3-3--3--3-3-5--5--5--5-5-5-5-5--5--5-5--|
Eb|---------------------------------------------------------|

GUITAR (Lead 1):

eb|---------------------|
Bb|---------------------|
Gb|--12--11----9----11--|
Db|---------------------|
Ab|---------------------|
Eb|---------------------|

GUITAR (Lead 2):

eb|--8--------------------|
Bb|---------10----12--10--|
Gb|-----------------------|
Db|-----------------------|
Ab|-----------------------|
Eb|-----------------------|

GUITAR (Vocals):

eb|---------------------------------|
Bb|--9----------7-9--9-9-/-10-9-----|
Gb|-----------9------------------9--|
Db|---------------------------------|
Ab|---------------------------------|
Eb|---------------------------------|

GUITAR (Harmony):

eb|-----10-/-12----------------9--------|
Bb|--9-------------9-10-12--12---12--9--|
Gb|-------------------------------------|
Db|-------------------------------------|
Ab|-------------------------------------|
Eb|-------------------------------------|

GUITAR (Rhythm):

eb|----------------------------------------------------------|
Bb|----------------------------------------------------------|
Gb|----------------------------------------------------------|
Db|--2--2--2--2-2-2-2-2--2--2-2--2--2--2--2-2-2-2-2--2--2-2--|
Ab|--2--2--2--2-2-2-2-2--2--2-2--2--2--2--2-2-2-2-2--2--2-2--|
Eb|--0--0--0--0-0-0-0-0--0--0-0--0--0--0--0-0-0-0-0--0--0-0--|

GUITAR (Lead 1):

eb|-------------|
Bb|--9----------|
Gb|------9------|
Db|----------9--|
Ab|-------------|
Eb|-------------|

GUITAR (Lead 2):

eb|--------------|
Bb|--12---9------|
Gb|-----------9--|
Db|--------------|
Ab|--------------|
Eb|--------------|

GUITAR (Vocals):

eb|----------------------------|
Bb|--7-9----7-9----------------|
Gb|-------9------9-9------9-9--|
Db|----------------------------|
Ab|----------------------------|
Eb|----------------------------|

GUITAR (Harmony):

eb|------------------------|
Bb|--10-12--9-10-12--9-10--|
Gb|------------------------|
Db|------------------------|
Ab|------------------------|
Eb|------------------------|

GUITAR (Rhythm):

eb|---------------------------------------------------------|
Bb|---------------------------------------------------------|
Gb|--7--7--7--7-7-7-7-7--7--7-7-7--7--7--7-7-7-7-7--7--7-7--|
Db|--7--7--7--7-7-7-7-7--7--7-7-7--7--7--7-7-7-7-7--7--7-7--|
Ab|--5--5--5--5-5-5-5-5--5--5-5-5--5--5--5-5-5-5-5--5--5-5--|
Eb|---------------------------------------------------------|

GUITAR (Lead 1):

eb|-------------|
Bb|--9----------|
Gb|------9------|
Db|----------9--|
Ab|-------------|
Eb|-------------|

GUITAR (Lead 2):

eb|--------------|
Bb|--12---9------|
Gb|-----------9--|
Db|--------------|
Ab|--------------|
Eb|--------------|

GUITAR (Vocals):

eb|---------------------------------------------|
Bb|---------------------------------------------|
Gb|--9-/-12--12-11--9--9-9-/-12-12-12-11--9--9--|
Db|---------------------------------------------|
Ab|---------------------------------------------|
Eb|---------------------------------------------|

GUITAR (Rhythm):

eb|---------------------------------------------------------|
Bb|---------------------------------------------------------|
Gb|---------------------------------------------------------|
Db|--7--7--7--7-7-7-7-7--7--7-7-7--7--7--7-7-7-7-7--7--7-7--|
Ab|--7--7--7--7-7-7-7-7--7--7-7-7--7--7--7-7-7-7-7--7--7-7--|
Eb|--5--5--5--5-5-5-5-5--5--5-5-5--5--5--5-5-5-5-5--5--5-5--|

GUITAR (Lead 1):

eb|----------------|
Bb|------------10--|
Gb|--------9-------|
Db|--11------------|
Ab|----------------|
Eb|----------------|

GUITAR (Lead 2):

eb|----------9--|
Bb|--10---------|
Gb|-------------|
Db|-------------|
Ab|-------------|
Eb|-------------|

GUITAR (Vocals):

eb|---------------------------------------|
Bb|-----------------------10-/-12--10--9--|
Gb|-------9-9----------9------------------|
Db|--10---------10-10---------------------|
Ab|---------------------------------------|
Eb|---------------------------------------|

GUITAR (Rhythm):

eb|---------------------------------------------------------|
Bb|---------------------------------------------------------|
Gb|--5--5--5--5-5-5-5-5--5--5-5-7--7--7--7-7-7-7-7--7--7-7--|
Db|--5--5--5--5-5-5-5-5--5--5-5-7--7--7--7-7-7-7-7--7--7-7--|
Ab|--3--3--3--3-3-3-3-3--3--3-3-5--5--5--5-5-5-5-5--5--5-5--|
Eb|---------------------------------------------------------|

GUITAR (Lead 1):

eb|---------------------|
Bb|---------------------|
Gb|--12--11----9----11--|
Db|---------------------|
Ab|---------------------|
Eb|---------------------|

GUITAR (Lead 2):

eb|--8--------------------|
Bb|---------10----12--10--|
Gb|-----------------------|
Db|-----------------------|
Ab|-----------------------|
Eb|-----------------------|


Outro:

GUITAR (Vocals):

eb|---------------|
Bb|---------------|
Gb|--9--9--9-7-9--|
Db|---------------|
Ab|---------------|
Eb|---------------|

GUITAR (Harmony):

eb|--12--12--12-10-12--|
Bb|--------------------|
Gb|--------------------|
Db|--------------------|
Ab|--------------------|
Eb|--------------------|

GUITAR (Rhythm):

eb|--------------------------------------------------------------|
Bb|--------------------------------------------------------------|
Gb|-----------------7--7-7--7-7-7-------------------------5-5-5--|
Db|--2--2-2--2-2-2--7--7-7--7-7-7--7--7-7--7-7-7--7--7-7--5-5-5--|
Ab|--2--2-2--2-2-2--5--5-5--5-5-5--7--7-7--7-7-7--7--7-7--3-3-3--|
Eb|--0--0-0--0-0-0-----------------5--5-5--5-5-5--5--5-5---------|

GUITAR (Lead):

eb|--------------------------------------------------------------------------10-12--|
Bb|--10-b-r--9------10-b-r--9---------8----10-b-r--9------10-b-r--9-------12--------|
Gb|------------9--9-----------9--7--9---9------------9--9-----------9--7------------|
Db|---------------------------------------------------------------------------------|
Ab|---------------------------------------------------------------------------------|
Eb|---------------------------------------------------------------------------------|

©2015 by Fefe - Tron544

Sigueme en:

  • YouTube - White Circle
  • Facebook - White Circle
  • Instagram - White Circle
  • Twitter - White Circle
This site was designed with the
.com
website builder. Create your website today.
Start Now