MAKAFUSHIGI ADVENTURE

DRAGON BALL

TABS ~ By Fefe (Tron544)

 

Chorus/Estribillo:

 

e|----------------------------------------|

B|--6--6--------6----------6--6--------6--|

G|--------8--5-------5--8--------8--5-----|

D|----------------------------------------|

A|----------------------------------------|

E|----------------------------------------|

 

e|--------------------------------------|

B|--------------------------------------|

G|--------------------------------------|

D|--8--8--8--8--6--8--8--8--8--6--6-----|

A|-----------------------------------8--|

E|--------------------------------------|

 

e|----------------------------------------|-----------------------------------|

B|--6--6--------6----------6--6--------6--|-----------------------------------|

G|--------8--5-------5--8--------8--5-----|--------------------------------5--|

D|----------------------------------------|--8--8--8--8--6--8--8--8--8--6-----|

A|----------------------------------------|-----------------------------------|

E|----------------------------------------|-----------------------------------|

 

e|--------------------------------------|-----------------------------------------------|

B|--------6--6--6--------------------6--|--------6----9--8--6-------9--8--6-------------|

G|--5--8-----------8--5--8--5--8--8-----|--5--8----------------8-------------8--8-/-10--|

D|--------------------------------------|-----------------------------------------------|

A|--------------------------------------|-----------------------------------------------|

E|--------------------------------------|-----------------------------------------------|

 

 

Verse/Estrofa:

 

e|--------------------------------------|--------------------------------------|

B|--------------------------------------|--------------------------------------|

G|-----5--5--5--5--5--------------------|-----5--5--5--5--5--------------------|

D|--------------------8--8--8--8--6--8--|--------------------8--8--8--8--6--8--|

A|--8-----------------------------------|--8-----------------------------------|

E|--------------------------------------|--------------------------------------|

 

e|----------------------------------------------------------------------|

B|----------------------------------------------------------------------|

G|--6--6--6--6--6--6--6--6--6--6--6--8--6--5---6--5---6--5--6--5--6--5--|

D|----------------------------------------------------------------------|

A|----------------------------------------------------------------------|

E|----------------------------------------------------------------------|

 

e|----------------------------------|--------------------------------------|

B|----------------------------------|--------------------------------------|

G|-----5--5--5--5-------------------|-----5--5--5--5--5--------------------|

D|-------------------8--8--8--6--8--|--------------------8--8--8--8--6--8--|

A|--8-------------------------------|--8-----------------------------------|

E|----------------------------------|--------------------------------------|

 

e|--------------------------------------------------------|

B|--------6--6--6--6--6--6--6--6--6--8--6--6--5----6-/-8--|

G|--5--8--------------------------------------------------|

D|--------------------------------------------------------|

A|--------------------------------------------------------|

E|--------------------------------------------------------|

Makafushigi Adventure - Tron544
00:00 / 00:00
DONATE%20BUTTON%20(EN)_edited.png

Pre-Chorus/Pre-Estribillo:

 

e|-----------------------------|----------------------------------|

B|-----------9--8--8--6--------|--6---6--6------------------------|

G|--8--5--8--------------8--8--|------------8--5--5--6--5---------|

D|-----------------------------|---------------------------6-/-8--|

A|-----------------------------|----------------------------------|

E|-----------------------------|----------------------------------|

 

e|-----------------------------|----------------------------------------|

B|-----------9--8--8--6--------|--6--6--6--6--6--9-------8--------8--6--|

G|--8--5--8--------------8--8--|--------------------8-------8--5--------|

D|-----------------------------|----------------------------------------|

A|-----------------------------|----------------------------------------|

E|-----------------------------|----------------------------------------|

 

 

Chorus/Estribillo:

 

e|----------------------------------------|--------------------------------------|

B|--6--6--------6----------6--6--------6--|--------------------------------------|

G|--------8--5-------5--8--------8--5-----|--------------------------------------|

D|----------------------------------------|--8--8--8--8--6--8--8--8--8--6--6-----|

A|----------------------------------------|-----------------------------------8--|

E|----------------------------------------|--------------------------------------|

 

e|----------------------------------------|-----------------------------------|

B|--6--6--------6----------6--6--------6--|-----------------------------------|

G|--------8--5-------5--8--------8--5-----|--------------------------------5--|

D|----------------------------------------|--8--8--8--8--6--8--8--8--8--6-----|

A|----------------------------------------|-----------------------------------|

E|----------------------------------------|-----------------------------------|

 

e|--------------------------------------|-----------------------------------------------|

B|--------6--6--6--------------------6--|--------6----9--8--6-------9--8--6-------------|

G|--5--8-----------8--5--8--5--8--8-----|--5--8----------------8-------------8--8-/-10--|

D|--------------------------------------|-----------------------------------------------|

A|--------------------------------------|-----------------------------------------------|

E|--------------------------------------|-----------------------------------------------|

©2015 by Fefe - Tron544

Sigueme en:

  • YouTube - White Circle
  • Facebook - White Circle
  • Instagram - White Circle
  • Twitter - White Circle
This site was designed with the
.com
website builder. Create your website today.
Start Now