~ MAGNET ~

TABLATURAS ~ By Fefe - Tron544

 

Verse/Estrofa:

 

e|--------------------------------------------------|

B|-----------7--------------------------7-----------|

G|--9--7--9-----9--7--7--9--7--9--7--9-----9--7--7--|

D|--------------------------------------------------|

A|--------------------------------------------------|

E|--------------------------------------------------|

 

e|-----------------------------------------------|

B|-----------7-----------------------------------|

G|--9--7--9-----9--7--7--9--7-----------7--7--6--|

D|-----------------------------9--7--9-----------|

A|-----------------------------------------------|

E|-----------------------------------------------|

 

e|--------------------------------------------------|

B|-----------7--------------------------7-----------|

G|--9--7--9-----9--7--7--9--7--9--7--9-----9--7--7--|

D|--------------------------------------------------|

A|--------------------------------------------------|

E|--------------------------------------------------|

 

e|----------------------------------7---6--------|

B|-----------7------------------7----------8--7--|

G|--9--7--9-----9--7--7--9--7--------------------|

D|-----------------------------------------------|

A|-----------------------------------------------|

E|-----------------------------------------------|

 

 

Pre-Chorus/Pre-Estribillo:

 

e|--------------------------------------|----------------------------------|

B|--8---8---7---------------------7-----|----------------------------------|

G|-------------9---6--7--9--7--9-----7--|-----6--7----7--6--7--9--6--------|

D|--------------------------------------|--9-------------------------7--7--|

A|--------------------------------------|----------------------------------|

E|--------------------------------------|----------------------------------|

 

e|-------------------------------------|-----------7-----------7--7----9--9--|

B|--8---8---7--8--7--------------------|--------7-------8--10----------------|

G|-------------------6--9--7--7--6--7--|--7--9-------------------------------|

D|-------------------------------------|-------------------------------------|

A|-------------------------------------|-------------------------------------|

E|-------------------------------------|-------------------------------------|

 

 

Chorus/Estribillo:

 

e|-----7--9--10--9--7-------------7--9--10--9--7--------|-----7--9--10--9--7---12---10--9--7--7----7--7--6--7--9--|

B|--7------------------7--7----7------------------7--7--|--7------------------------------------------------------|

G|------------------------------------------------------|---------------------------------------------------------|

D|------------------------------------------------------|---------------------------------------------------------|

A|------------------------------------------------------|---------------------------------------------------------|

E|------------------------------------------------------|---------------------------------------------------------|

 

e|--10--9--7-------------7--9--10--9--7--------|-----7--9--10--9--7---12---10--9--7--7----7--7--6--7--9--9--7--7--|

B|------------7--7----7------------------7--7--|--7---------------------------------------------------------------|

G|---------------------------------------------|------------------------------------------------------------------|

D|---------------------------------------------|------------------------------------------------------------------|

A|---------------------------------------------|------------------------------------------------------------------|

E|---------------------------------------------|------------------------------------------------------------------|

 

 

Pre-Chorus/Pre-Estribillo:

 

e|--------------------------------------|----------------------------------|

B|--8---8---7---------------------7-----|----------------------------------|

G|-------------9---6--7--9--7--9-----7--|-----6--7----7--6--7--9--6--------|

D|--------------------------------------|--9-------------------------7--7--|

A|--------------------------------------|----------------------------------|

E|--------------------------------------|----------------------------------|

 

e|-------------------------------------|-----------7-----------7--7----9--9--|

B|--8---8---7--8--7--------------------|--------7-------8--10----------------|

G|-------------------6--9--7--7--6--7--|--7--9-------------------------------|

D|-------------------------------------|-------------------------------------|

A|-------------------------------------|-------------------------------------|

E|-------------------------------------|-------------------------------------|

 

 

Chorus/Estribillo:

 

e|-----7--9--10--9--7-------------7--9--10--9--7--------|-----7--9--10--9--7---12---10--9--7--7----7--7--6--7--9--|

B|--7------------------7--7----7------------------7--7--|--7------------------------------------------------------|

G|------------------------------------------------------|---------------------------------------------------------|

D|------------------------------------------------------|---------------------------------------------------------|

A|------------------------------------------------------|---------------------------------------------------------|

E|------------------------------------------------------|---------------------------------------------------------|

 

e|--10--9--7-------------7--9--10--9--7--------|-----7--9--10--9--7---12---10--9--7--7----7--7--6--14--12--|

B|------------7--7----7------------------7--7--|--7--------------------------------------------------------|

G|---------------------------------------------|-----------------------------------------------------------|

D|---------------------------------------------|-----------------------------------------------------------|

A|---------------------------------------------|-----------------------------------------------------------|

E|---------------------------------------------|-----------------------------------------------------------|

 

e|--10--9--7-------------7--9--10--9--7--------|-----7--9--10--9--7---12---10--9--7--7----7--7--6--7--9--|

B|------------7--7----7------------------7--7--|--7------------------------------------------------------|

G|---------------------------------------------|---------------------------------------------------------|

D|---------------------------------------------|---------------------------------------------------------|

A|---------------------------------------------|---------------------------------------------------------|

E|---------------------------------------------|---------------------------------------------------------|

 

e|--10--9--7-------------7--9--10--9--7--------|-----7--9--10--9--7---12---10--9--7--7---7--7--6--7--9--9--10--7--|

B|------------7--7----7------------------7--7--|--7---------------------------------------------------------------|

G|---------------------------------------------|------------------------------------------------------------------|

D|---------------------------------------------|------------------------------------------------------------------|

A|---------------------------------------------|------------------------------------------------------------------|

E|---------------------------------------------|------------------------------------------------------------------|

 

 

 

Magnet - Tron544
00:00 / 00:00

©2019 by Fefe - Tron544

Sigueme en:

  • YouTube - White Circle
  • Facebook - White Circle
  • Instagram - White Circle
  • Twitter - White Circle
This site was designed with the
.com
website builder. Create your website today.
Start Now