LOVERS

NARUTO SHIPPUDEN

TABS ~ By Fefe (Tron544)

 

Intro:

 

GUITAR 1:

 

e|----------|---------------|

B|----------|---------------|

G|--8----8--|---------------|

D|--8----8--|--2----4----6--|

A|--6----6--|--2----4----6--|

E|----------|--0----2----4--|

 

GUITAR 2:

 

e|--7--------|-----------------------------7--------|

B|-----9--7--|--9---9--7--7--7-----7-/-9------9--7--|

G|-----------|------------------8-------------------|

D|-----------|--------------------------------------|

A|-----------|--------------------------------------|

E|-----------|--------------------------------------|

 

GUITAR 3:

 

e|-----7-------------9---------------11----------11----------11--|

B|--------9-------------11---------------12----------12----------|

G|--9--------9---11---------11---13----------13----------13------|

D|---------------------------------------------------------------|

A|---------------------------------------------------------------|

E|---------------------------------------------------------------|

 

GUITAR 1:

 

e|---------------|

B|---------------|

G|------------4--|

D|--2----4----4--|

A|--2----4----2--|

E|--0----2-------|

 

GUITAR 2:

 

e|-------------------------7--------|

B|--9---9--9--7--9--7---------9--7--|

G|---------------------8------------|

D|----------------------------------|

A|----------------------------------|

E|----------------------------------|

 

GUITAR 3:

 

e|-----7-------------9--------------7--------7--------7--|

B|--------9-------------11-------------9--------9--------|

G|--9--------7---11---------11---8--------8--------8-----|

D|-------------------------------------------------------|

A|-------------------------------------------------------|

E|-------------------------------------------------------|

 

GUITAR 1:

 

e|--------------------|

B|--------------------|

G|--6----8----8-------|

D|--6----8----8----6--|

A|--4----6----6----6--|

E|-----------------4--|

 

GUITAR 2:

 

e|--------------------11--9--7------7---------11--|

B|--9---9--9--11--11------------11--------11------|

G|-------------------------------------8----------|

D|------------------------------------------------|

A|------------------------------------------------|

E|------------------------------------------------|

 

GUITAR 3:

 

e|-----7-------------9---------------11---------------11----------|

B|--------9-------------11---------------11---------------12------|

G|--9--------9---11---------11---12----------12---13----------13--|

D|----------------------------------------------------------------|

A|----------------------------------------------------------------|

E|----------------------------------------------------------------|

 

GUITAR 1:

 

e|------------|

B|------------|

G|--9------8--|

D|--9------8--|

A|--7------6--|

E|------------|

 

GUITAR 2:

 

e|--9-------|

B|------11--|

G|----------|

D|----------|

A|----------|

E|----------|

 

GUITAR 3:

 

e|-----7--------7--------7------6--------6--------6--|

B|--------9--------9---------------8--------8--------|

G|--9--------9--------9------8--------8--------8-----|

D|---------------------------------------------------|

A|---------------------------------------------------|

E|---------------------------------------------------|

 

GUITAR 1:

 

e|-----------------|

B|-----------------|

G|--9----9--9--11--|

D|--9----9--9--11--|

A|--7----7--7--9---|

E|-----------------|

 

GUITAR 2:

 

e|--14------------------14------------------------------|

B|------12--11--12--12------12--12--12--11--12--11--12--|

G|------------------------------------------------------|

D|------------------------------------------------------|

A|------------------------------------------------------|

E|------------------------------------------------------|

 

GUITAR 1:

 

e|---------------------------------------------------------|

B|---------------------------------------------------------|

G|----------------9--9---8--8-----------------9--9---8--8--|

D|--6--6---4--4---9--9---8--8---6--6---4--4---9--9---8--8--|

A|--6--6---4--4---7--7---6--6---6--6---4--4---7--7---6--6--|

E|--4--4---2--2-----------------4--4---2--2----------------|

 

GUITAR 3:

 

e|----------11------------------------------------------------11----------------------------------|

B|--------------14--12--12--11--12--11----------------------------14--12--12--14-b--14--12--14-b--|

G|--13--13------------------------------11----11--11--13--13--------------------------------------|

D|------------------------------------------------------------------------------------------------|

A|------------------------------------------------------------------------------------------------|

E|------------------------------------------------------------------------------------------------|

 

 

Verse/Estrofa:

 

GUITAR 1:

 

  /~~~~~~~~~~~~~~~~~~~~~~~~( REPEAT x2 / REPITE x2 )~~~~~~~~~~~~~~~~~~~~~~~~~\

e|----------------------------------------------------------------------------|

B|----------------------------------------------------------------------------|

G|----------------------------------------------------------------------------|

D|--6--6---#---#--#--#--#--#---#---#--#--#--#---#---#--#--#--#--#---#---#--#--|

A|--6--6---#---#--#--#--#--#---#---#--#--#--#---#---#--#--#--#--#---#---#--#--|

E|--4--4---#---#--#--#--#--#---#---#--#--#--#---#---#--#--#--#--#---#---#--#--|

 

GUITAR 2:

 

e|-----------7--6---------------6--|--7--6---------------|

B|--9--9--9--------9--9---9--9-----|--------9--7--7-/-9--|

G|---------------------------------|---------------------|

D|---------------------------------|---------------------|

A|---------------------------------|---------------------|

E|---------------------------------|---------------------|

 

GUITAR 1:

 

e|----------------------------------------------------------------------------|

B|----------------------------------------------------------------------------|

G|----------------------------------------------------------------------------|

D|--6--6---#---#--#--#--#--#---#---#--#--#--#---#---#--#--#--#--#---#---#--#--|

A|--6--6---#---#--#--#--#--#---#---#--#--#--#---#---#--#--#--#--#---#---#--#--|

E|--4--4---#---#--#--#--#--#---#---#--#--#--#---#---#--#--#--#--#---#---#--#--|

 

GUITAR 2:

 

e|------------------------------|

B|--9--9--9--9--7--9------------|

G|---------------------8--6-----|

D|---------------------------9--|

A|------------------------------|

E|------------------------------|

 

GUITAR 1:

 

e|---------------------------------------|

B|---------------------------------------|

G|--6--x--x--6--6--6---8--x--x--8--8--8--|

D|--6--x--x--6--6--6---8--x--x--8--8--8--|

A|--4--x--x--4--4--4---6--x--x--6--6--6--|

E|---------------------------------------|

 

GUITAR 2:

 

e|------------------------------|-----|

B|--9--9--9--9--7--9------------|-----|

G|---------------------8--6-----|--6--|

D|---------------------------9--|-----|

A|------------------------------|-----|

E|------------------------------|-----|

 

GUITAR 1:

 

  /~~~~~~~~~~~~~~~~~~~~~~~~( REPEAT x2 / REPITE x2 )~~~~~~~~~~~~~~~~~~~~~~~~~\

e|----------------------------------------------------------------------------|

B|----------------------------------------------------------------------------|

G|----------------------------------------------------------------------------|

D|--6--6---#---#--#--#--#--#---#---#--#--#--#---#---#--#--#--#--#---#---#--#--|

A|--6--6---#---#--#--#--#--#---#---#--#--#--#---#---#--#--#--#--#---#---#--#--|

E|--4--4---#---#--#--#--#--#---#---#--#--#--#---#---#--#--#--#--#---#---#--#--|

 

GUITAR 2:

 

e|-----------7--6-----6-/-7--|-----------------7--6-----|

B|--9--9--9--------9---------|--9--9--9--9--9--------9--|

G|---------------------------|--------------------------|

D|---------------------------|--------------------------|

A|---------------------------|--------------------------|

E|---------------------------|--------------------------|

 

GUITAR 1:

 

e|----------------------------------------------------------------------------|

B|----------------------------------------------------------------------------|

G|----------------------------------------------------------------------------|

D|--6--6---#---#--#--#--#--#---#---#--#--#--#---#---#--#--#--#--#---#---#--#--|

A|--6--6---#---#--#--#--#--#---#---#--#--#--#---#---#--#--#--#--#---#---#--#--|

E|--4--4---#---#--#--#--#--#---#---#--#--#--#---#---#--#--#--#--#---#---#--#--|

 

GUITAR 2:

 

e|---------------------------------|

B|--9--9--9--7--9--7--9------------|

G|------------------------8--6-----|

D|------------------------------9--|

A|---------------------------------|

E|---------------------------------|

 

GUITAR 1:

 

e|---------------------------------------|

B|---------------------------------------|

G|--6--x--x--6--6--6---8--x--x--8--8--8--|

D|--6--x--x--6--6--6---8--x--x--8--8--8--|

A|--4--x--x--4--4--4---6--x--x--6--6--6--|

E|---------------------------------------|

 

GUITAR 2:

 

e|-----|

B|-----|

G|--6--|

D|-----|

A|-----|

E|-----|

Lovers - Tron544
00:00 / 00:00
DONATE%20BUTTON%20(EN)_edited.png

Pre-Chorus/Pre-Estribillo:

 

GUITAR 1:

 

e|------------------------------------------------------------------------|

B|------------------------------------------------------------------------|

G|--9--9---8--8-------------------9--9---8--8-----------------------------|

D|--9--9---8--8---6--6--6--6--6---9--9---8--8---6------4--4--4-----4-h-6--|

A|--7--7---6--6---6--6--6--6--6---7--7---6--6---6---6-----------6---------|

E|----------------4--4--4--4--4-----------------4-------------------------|

 

GUITAR 2:

 

e|------------------------------------------------------7-----|

B|--9--9--7--7--9------------------9--9--7--7--7--7--7-----9--|

G|-----------------8--6-----6--8------------------------------|

D|-----------------------9------------------------------------|

A|------------------------------------------------------------|

E|------------------------------------------------------------|

 

GUITAR 1:

 

e|-------------------------------------------------------------------------------------------------|

B|-------------------------------------------------------------------------------------------------|

G|--9--9---8--8-------------------6--6--6--6--6--------------------------------------------8----8--|

D|--9--9---8--8---6--6--6--6--6---6--6--6--6--6---7--7--7--7--7---4--x--x--4--x--x--4--x---8----8--|

A|--7--7---6--6---6--6--6--6--6---4--4--4--4--4---7--7--7--7--7---4--x--x--4--x--x--4--x---6----6--|

E|----------------4--4--4--4--4-------------------5--5--5--5--5---2--x--x--2--x--x--2--x-----------|

 

GUITAR 2:

 

e|---------------------------------------------------------------|

B|--9--9--7--7--9------------------------------------------------|

G|-----------------8--6-----6--8--8--9--9--8--6------------8--6--|

D|-----------------------9-----------------------9--9---6--------|

A|---------------------------------------------------------------|

E|---------------------------------------------------------------|

 

 

Chorus/Estribillo:

 

GUITAR 1:

 

e|-------------------------------|

B|-------------------------------|

G|-------------------------------|

D|--2--2---4--4---6--6--6--6--6--|

A|--2--2---4--4---6--6--6--6--6--|

E|--0--0---2--2---4--4--4--4--4--|

 

GUITAR 2:

 

e|--7--------|-----------------------------7--------|

B|-----9--7--|--9---9--7--7--7-----7-/-9------9--7--|

G|-----------|------------------8-------------------|

D|-----------|--------------------------------------|

A|-----------|--------------------------------------|

E|-----------|--------------------------------------|

 

GUITAR 3:

 

e|-----7-------------9---------------11----------11----------11--|

B|--------9-------------11---------------12----------12----------|

G|--9--------9---11---------11---13----------13----------13------|

D|---------------------------------------------------------------|

A|---------------------------------------------------------------|

E|---------------------------------------------------------------|

 

GUITAR 1:

 

e|-------------------------------|

B|-------------------------------|

G|----------------4--4--4--4--4--|

D|--2--2---4--4---4--4--4--4--4--|

A|--2--2---4--4---2--2--2--2--2--|

E|--0--0---2--2------------------|

 

GUITAR 2:

 

e|-------------------------7--------|

B|--9---9--9--7--9--7---------9--7--|

G|---------------------8------------|

D|----------------------------------|

A|----------------------------------|

E|----------------------------------|

 

GUITAR 3:

 

e|-----7-------------9--------------7--------7--------7--|

B|--------9-------------11-------------9--------9--------|

G|--9--------7---11---------11---8--------8--------8-----|

D|-------------------------------------------------------|

A|-------------------------------------------------------|

E|-------------------------------------------------------|

 

GUITAR 1:

 

e|----------------------------|

B|----------------------------|

G|--6--6---8--8--8--8---------|

D|--6--6---8--8--8--8---6--6--|

A|--4--4---6--6--6--6---6--6--|

E|----------------------4--4--|

 

GUITAR 2:

 

e|--------------------11--9--7------7---------11-|

B|--9---9--9--11--11------------11--------11-----|

G|-------------------------------------8---------|

D|-----------------------------------------------|

A|-----------------------------------------------|

E|-----------------------------------------------|

 

GUITAR 3:

 

e|-----7-------------9---------------11---------------11----------|

B|--------9-------------11---------------11---------------12------|

G|--9--------9---11---------11---12----------12---13----------13--|

D|----------------------------------------------------------------|

A|----------------------------------------------------------------|

E|----------------------------------------------------------------|

 

GUITAR 1:

 

e|---------------------------|

B|---------------------------|

G|--9--9--9--9---8--8--8--8--|

D|--9--9--9--9---8--8--8--8--|

A|--7--7--7--7---6--6--6--6--|

E|---------------------------|

 

GUITAR 2:

 

e|--9-------|

B|------11--|

G|----------|

D|----------|

A|----------|

E|----------|

 

GUITAR 3:

 

e|-----7--------7--------7------6--------6--------6--|

B|--------9--------9---------------8--------8--------|

G|--9--------9--------9------8--------8--------8-----|

D|---------------------------------------------------|

A|---------------------------------------------------|

E|---------------------------------------------------|

 

GUITAR 1:

 

e|-----------------------------------|

B|-----------------------------------|

G|--9--9--9--9---11--11--11--11--11--|

D|--9--9--9--9---11--11--11--11--11--|

A|--7--7--7--7---9---9---9---9---9---|

E|-----------------------------------|

 

GUITAR 2:

 

e|--14------------------14------------------------------|

B|------12--11--12--12------12--12--12--11--12--11--12--|

G|------------------------------------------------------|

D|------------------------------------------------------|

A|------------------------------------------------------|

E|------------------------------------------------------|

 

GUITAR 3:

 

e|-----7--------7--------7-------9----------9----------9--|

B|--------9--------9----------------11---------11---------|

G|--9--------9--------9------11---------11---------11-----|

D|--------------------------------------------------------|

A|--------------------------------------------------------|

E|--------------------------------------------------------|

 

 

Outro:

 

GUITAR 1:

 

e|---------------------------------------------------------|

B|---------------------------------------------------------|

G|----------------9--9---8--8-----------------9--9---8--8--|

D|--6--6---4--4---9--9---8--8---6--6---4--4---9--9---8--8--|

A|--6--6---4--4---7--7---6--6---6--6---4--4---7--7---6--6--|

E|--4--4---2--2-----------------4--4---2--2----------------|

 

GUITAR 2:

 

e|--14------------------14------------------------------|

B|------12--11--12--12------12--12--12--11--12--11--12--|

G|------------------------------------------------------|

D|------------------------------------------------------|

A|------------------------------------------------------|

E|------------------------------------------------------|

 

GUITAR 3:

 

e|----------11------------------------------------------------11----------------------------------|

B|--------------14--12--12--11--12--11----------------------------14--12--12--14-b--14--12--14-b--|

G|--13--13------------------------------11----11--11--13--13--------------------------------------|

D|------------------------------------------------------------------------------------------------|

A|------------------------------------------------------------------------------------------------|

E|------------------------------------------------------------------------------------------------|

 

GUITAR 1:

 

e|---------------------------------------------------------|-----|

B|---------------------------------------------------------|-----|

G|----------------9--9---8--8-----------------9--9---8--8--|-----|

D|--6--6---4--4---9--9---8--8---6--6---4--4---9--9---8--8--|--6--|

A|--6--6---4--4---7--7---6--6---6--6---4--4---7--7---6--6--|--6--|

E|--4--4---2--2-----------------4--4---2--2----------------|--4--|

 

GUITAR 3:

 

e|----------11------------------------------------------------11----------------------------------|

B|--------------14--12--12--11--12--11----------------------------14--12--12--14-b--14--12--14-b--|

G|--13--13------------------------------11----11--11--13--13--------------------------------------|

D|------------------------------------------------------------------------------------------------|

A|------------------------------------------------------------------------------------------------|

E|------------------------------------------------------------------------------------------------|

©2015 by Fefe - Tron544

Sigueme en:

  • YouTube - White Circle
  • Facebook - White Circle
  • Instagram - White Circle
  • Twitter - White Circle
This site was designed with the
.com
website builder. Create your website today.
Start Now