LOVE DRAMATIC

KAGUYA-SAMA: LOVE IS WAR

TABS ~ By Fefe (Tron544)

 

Intro:

GUITAR (Vocals):

e|-----------------------|
B|---------------5-------|
G|------------------6p4--|
D|------------6----------|
A|-----------------------|
E|-----------------------|

GUITAR (Rhythm):

e|--9-#-#-9-#-#-9-#-#-9-#-#----------|
B|----#-#---#-#---#-#---#-#-9--------|
G|--6-#-#-6-#-#-6-#-#-6-#-#----------|
D|--------------------------6--------|
A|-----------------------------------|
E|-----------------------------------|

GUITAR (Vocals):

e|------------------------------------------------------------------|
B|---------------------------4-4h5--4---5--4---5/7--5-4-4----4-4h5--|
G|--6-4-4/6---4---6--4/6---6----------6------6-------------6--------|
D|--------------6---------------------------------------------------|
A|------------------------------------------------------------------|
E|------------------------------------------------------------------|

GUITAR (Rhythm):

e|-----------------------------------------------------------|
B|--5--5--#-4-4-#-2--#-2--2-2----2-------5--2----------------|
G|--6--6--#-4-4-#-2--#-2--2-2------2---2------2-5--6-7-8-----|
D|--6--6--#-4-4-#-2--#-2--2-2-6------4-----------------------|
A|----------------------------------------------3--4-5-6-----|
E|-----------------------------------------------------------|

GUITAR (Wah-Wah):

e|----------------------------------------------------------------------------------------------|
B|----#-#-#-#-#--#-#-#-#-#--#-#-#-#-#--#-#-#-#-#--#-#-#-#-#--#-#-#-#-#--#-#-#-#-#--#-#-#-#-#----|
G|----#-#-#-#-#--#-#-#-#-#--#-#-#-#-#--#-#-#-#-#--#-#-#-#-#--#-#-#-#-#--#-#-#-#-#--#-#-#-#-#----|
D|----#-#-#-#-#--#-#-#-#-#--#-#-#-#-#--#-#-#-#-#--#-#-#-#-#--#-#-#-#-#--#-#-#-#-#--#-#-#-#-#----|
A|----#-#-#-#-#--#-#-#-#-#--#-#-#-#-#--#-#-#-#-#--#-#-#-#-#--#-#-#-#-#--#-#-#-#-#--#-#-#-#-#----|
E|----------------------------------------------------------------------------------------------|

GUITAR (Vocals):

e|-----------------------------------------------------|
B|---4---------------4---------------------------------|
G|-----6-4--4---4--6---6--6-4-6--6-4-6--6-4-4/6--------|
D|------------6----------------------------------------|
A|-----------------------------------------------------|
E|-----------------------------------------------------|

GUITAR (Rhythm):

e|--------2--2--4--4--4-4-----------------4-----4--4--|
B|------2-4--4--4--4--5-5--------2------4-6-----6--6--|
G|----2---4--4--4--4--6-6------2------4---6-----6--6--|
D|--------4--4--6--6--6-6---4------6------6-----6--6--|
A|--0-----2--2--------4-4-----------------4-----4--4--|
E|----------------------------------------------------|

GUITAR (Wah-Wah):

e|---------------------------------------------------------------------------------------|
B|----#-#-#-#-#--#-#-#-#-#--#-#-#-#-#--#-#-#-#-#--#-#-#-#-#--#-#-#-#-#--#-#-#-#-#-#-#----|
G|----#-#-#-#-#--#-#-#-#-#--#-#-#-#-#--#-#-#-#-#--#-#-#-#-#--#-#-#-#-#--#-#-#-#-#-#-#----|
D|----#-#-#-#-#--#-#-#-#-#--#-#-#-#-#--#-#-#-#-#--#-#-#-#-#--#-#-#-#-#--#-#-#-#-#-#-#----|
A|----#-#-#-#-#--#-#-#-#-#--#-#-#-#-#--#-#-#-#-#--#-#-#-#-#--#-#-#-#-#--#-#-#-#-#-#-#----|
E|---------------------------------------------------------------------------------------|

 


Verse/Estrofa:

GUITAR (Vocals):

e|------------------------------------------------------|
B|------------------------------------------------------|
G|----4/6--4----4--4/6----------------------------------|
D|------------6-----------4-6-4/6\4-4/9---7/6---7-6-----|
A|----------------------7-------------------------------|
E|------------------------------------------------------|

GUITAR (Rhythm):

e|--------------|-------------------------------------------------------|
B|--------------|-------------------------------------------------------|
G|------7-8--9--|-----6-4-6-4------------------------------5--6--7--8---|
D|--------------|-------------------7-6-7-6-------4-2-4-2---------------|
A|------5-6--7--|---4-------------7-------------4----------3--4--5--6---|
E|--------------|--------------5-------------2--------------------------|

GUITAR (Wah-Wah):

e|--------------|---------------------------------------------------------------|
B|--------------|-------#-#-#-#-#------#-#-#-#-#------#-#-#-#-#------#-#-#-#-#--|
G|------7-8--9--|-------#-#-#-#-#------#-#-#-#-#------#-#-#-#-#------#-#-#-#-#--|
D|--------------|-------#-#-#-#-#------#-#-#-#-#------#-#-#-#-#------#-#-#-#-#--|
A|------5-6--7--|-------#-#-#-#-#------#-#-#-#-#------#-#-#-#-#------#-#-#-#-#--|
E|--------------|---------------------------------------------------------------|

GUITAR (Vocals):

e|----------------------------------------------------------|
B|----------------------------------------------------------|
G|----4/6--4----4--4/6--------------------------------------|
D|------------6-----------4-6-4/6\4-4/9---7/6---7-6--6-6-6--|
A|----------------------7-----------------------------------|
E|----------------------------------------------------------|

GUITAR (Rhythm):

e|---------------------------------------------------------|
B|------------------------------------------4------4--4----|
G|-----6-4-6-4------------------------------6----6-5--5----|
D|-------------------7-6-7-6-------4-2-4-2--6--6---6--6----|
A|--4--------------7-------------4-------------------------|
E|--------------5-------------2----------------------------|

GUITAR (Wah-Wah):

e|---------------------------------------------------------------|
B|-------#-#-#-#-#------#-#-#-#-#------#-#-#-#-#------#-#-#-#-#--|
G|-------#-#-#-#-#------#-#-#-#-#------#-#-#-#-#------#-#-#-#-#--|
D|-------#-#-#-#-#------#-#-#-#-#------#-#-#-#-#------#-#-#-#-#--|
A|-------#-#-#-#-#------#-#-#-#-#------#-#-#-#-#------#-#-#-#-#--|
E|---------------------------------------------------------------|

Love Dramatic - Tron544
00:00 / 00:00
DONATE%20BUTTON%20(EN)_edited.png

Pre-Chorus/Pre-Estribillo:

GUITAR (Vocals):

e|---------------------------------------------------------------|
B|---------------4--5--4-----------------------------------------|
G|---------4--6-----------4------------4--4--6-------------------|
D|------7-------------------6-6/9--9\6----------4h6-4--2----4/6--|
A|---------------------------------------------------------------|
E|---------------------------------------------------------------|

GUITAR (Rhythm):

e|-----|-------0-----------2-----------2-------------------|
B|-----|-----2-----------4-----------4-----------4-5-------|
G|-----|---2-----------4-----------4-----------4-----------|
D|-----|------------------------------------------------4--|
A|--0--|-------------2-----------------------4-------------|
E|-----|-------------------------4-------------------------|

GUITAR (Wah-Wah):

e|---------------------------------------------------------------|
B|-------#-#-#-#-#------#-#-#-#-#------#-#-#-#-#------#-#-#-#-#--|
G|-------#-#-#-#-#------#-#-#-#-#------#-#-#-#-#------#-#-#-#-#--|
D|-------#-#-#-#-#------#-#-#-#-#------#-#-#-#-#------#-#-#-#-#--|
A|-------#-#-#-#-#------#-#-#-#-#------#-#-#-#-#------#-#-#-#-#--|
E|---------------------------------------------------------------|

GUITAR (Vocals):

e|----------------------------------------------------------|
B|----------------------------------------------------------|
G|----------------------------------------------------------|
D|---4--4--2-4-2-4/6--4/6------7-7--7-6-4-6-6/7-----7-7-7---|
A|---------------------------7------------------------------|
E|----------------------------------------------------------|

GUITAR (Rhythm):

e|-------0-------------0-------------0-------------0-------|
B|-----2----2--------4----4--------2----2--------1----1----|
G|---2--------2----4--------4----2--------2--2----------2--|
D|---------------6-----------------------------4-----------|
A|-----------------------------0---------------------------|
E|---------------------------------------------------------|

GUITAR (Wah-Wah):

e|---------------------------------------------------------------|
B|-------#-#-#-#-#------#-#-#-#-#------#-#-#-#-#------#-#-#-#-#--|
G|-------#-#-#-#-#------#-#-#-#-#------#-#-#-#-#------#-#-#-#-#--|
D|-------#-#-#-#-#------#-#-#-#-#------#-#-#-#-#------#-#-#-#-#--|
A|-------#-#-#-#-#------#-#-#-#-#------#-#-#-#-#------#-#-#-#-#--|
E|---------------------------------------------------------------|

GUITAR (Vocals):

e|--------------------------|
B|--------------------------|
G|---------5-6--6/8---------|
D|--6--6-6------------------|
A|--------------------------|
E|--------------------------|

GUITAR (Rhythm):

e|------------------------|
B|------------------------|
G|--8---6---7---8---6--7--|
D|------------------------|
A|--6---4---5---6---4--5--|
E|------------------------|

 


Chorus/Estribillo:

GUITAR (Vocals):

e|---------------|--------------------------------------------------------------|
B|-------6-------|---------------------------5-5h6--5---6--5---6/8--6--5--------|
G|----------7p5--|--7-5-5/7---5---5--5/7---7----------7------7---------------7--|
D|----7----------|--------------7-----------------------------------------7-----|
A|---------------|--------------------------------------------------------------|
E|---------------|--------------------------------------------------------------|

GUITAR (Rhythm):

e|------------|-----------------------------------------------------------|
B|------------|--6--6--#-5-5-#-3--#-3--3-3----3-------6--3----------------|
G|--9-9-------|--7--7--#-5-5-#-3--#-3--3-3------3---3------3-6--7--8--9---|
D|------------|--7--7--#-5-5-#-3--#-3--3-3-7------5-----------------------|
A|--7-7-------|----------------------------------------------4--5--6--7---|
E|------------|-----------------------------------------------------------|

GUITAR (Wah-Wah):

e|---------------------------------------------------------------------------------------------------|
B|----#-#-#-#-#--#-#-#-#-#--#-#-#-#-#--#-#-#-#-#--#-#-#-#-#--#-#-#-#-#--#-#-#-#-#-#-#-#-#-#-#-#-#-#--|
G|----#-#-#-#-#--#-#-#-#-#--#-#-#-#-#--#-#-#-#-#--#-#-#-#-#--#-#-#-#-#--#-#-#-#-#-#-#-#-#-#-#-#-#-#--|
D|----#-#-#-#-#--#-#-#-#-#--#-#-#-#-#--#-#-#-#-#--#-#-#-#-#--#-#-#-#-#--#-#-#-#-#-#-#-#-#-#-#-#-#-#--|
A|----#-#-#-#-#--#-#-#-#-#--#-#-#-#-#--#-#-#-#-#--#-#-#-#-#--#-#-#-#-#--#-#-#-#-#-#-#-#-#-#-#-#-#-#--|
E|---------------------------------------------------------------------------------------------------|

GUITAR (Vocals):

e|---------------------------------------------------------------|
B|------------------------5-5h6--5---6--5---6/8--6-5-5--5-5-5h6--|
G|---5/7---5---7--5/7---7----------7------7----------------------|
D|-----------7---------------------------------------------------|
A|---------------------------------------------------------------|
E|---------------------------------------------------------------|

GUITAR (Rhythm):

e|-----------------------------------------------------------|
B|--6--6--#-5-5-#-3--#-3--3-3----3-------6--3----------------|
G|--7--7--#-5-5-#-3--#-3--3-3------3---3------3-6--7-8-9-----|
D|--7--7--#-5-5-#-3--#-3--3-3-7------5-----------------------|
A|----------------------------------------------4--5-6-7-----|
E|-----------------------------------------------------------|

GUITAR (Wah-Wah):

e|----------------------------------------------------------------------------------------------|
B|----#-#-#-#-#--#-#-#-#-#--#-#-#-#-#--#-#-#-#-#--#-#-#-#-#--#-#-#-#-#--#-#-#-#-#--#-#-#-#-#----|
G|----#-#-#-#-#--#-#-#-#-#--#-#-#-#-#--#-#-#-#-#--#-#-#-#-#--#-#-#-#-#--#-#-#-#-#--#-#-#-#-#----|
D|----#-#-#-#-#--#-#-#-#-#--#-#-#-#-#--#-#-#-#-#--#-#-#-#-#--#-#-#-#-#--#-#-#-#-#--#-#-#-#-#----|
A|----#-#-#-#-#--#-#-#-#-#--#-#-#-#-#--#-#-#-#-#--#-#-#-#-#--#-#-#-#-#--#-#-#-#-#--#-#-#-#-#----|
E|----------------------------------------------------------------------------------------------|

GUITAR (Vocals):

e|----------------------------------------------------------------|
B|---5---------------------5-5h6--5----------6/8--6-5------5-5h6--|
G|-----7-5--5---5---7-7--7----------7-5--5-5----------7--7--------|
D|------------7---------------------------------------------------|
A|----------------------------------------------------------------|
E|----------------------------------------------------------------|

GUITAR (Rhythm):

e|--------3--3--5--5--5-5----------3--3--------5-5---|
B|------3-5--5--5--5--6-6--------3-5--5--5--5--6-6---|
G|----3---5--5--5--5--7-7------3---5--5--6--6--7-7---|
D|--------5--5--7--7--7-7----------5--5--5--5--7-7---|
A|--1-----3--3--------5-5----1-----3--3--4--4--5-5---|
E|---------------------------------------------------|

GUITAR (Wah-Wah):

e|----------------------------------------------------------------------------------------------|
B|----#-#-#-#-#--#-#-#-#-#--#-#-#-#-#--#-#-#-#-#--#-#-#-#-#--#-#-#-#-#--#-#-#-#-#--#-#-#-#-#----|
G|----#-#-#-#-#--#-#-#-#-#--#-#-#-#-#--#-#-#-#-#--#-#-#-#-#--#-#-#-#-#--#-#-#-#-#--#-#-#-#-#----|
D|----#-#-#-#-#--#-#-#-#-#--#-#-#-#-#--#-#-#-#-#--#-#-#-#-#--#-#-#-#-#--#-#-#-#-#--#-#-#-#-#----|
A|----#-#-#-#-#--#-#-#-#-#--#-#-#-#-#--#-#-#-#-#--#-#-#-#-#--#-#-#-#-#--#-#-#-#-#--#-#-#-#-#----|
E|----------------------------------------------------------------------------------------------|

GUITAR (Vocals):

e|-----------------------------------------------------------------------------------|
B|---5---------------5-------------------------------5/6-5---------------------------|
G|-----7-5--5---5--7---7--7-5-7--7-5-7--7-5-5/7------------7--7-5-7--7-5-5/7---------|
D|------------7----------------------------------------------------------------------|
A|-----------------------------------------------------------------------------------|
E|-----------------------------------------------------------------------------------|

GUITAR (Rhythm):

e|--------3--3--5--5--5-5-----------------5--------------3----5----5-----------|
B|------3-5--5--5--5--6-6--------3------5-6--------------3----5----7-----5-5---|
G|----3---5--5--5--5--7-7------3------5---7--------------3----5----7-----5-5---|
D|--------5--5--7--7--7-7---5------7------7------5-------5----7----7-----------|
A|--1-----3--3--------5-5-----------------5--5-8----8-7------------5-----5-5---|
E|-----------------------------------------------------------------------------|

GUITAR (Wah-Wah):

e|---------------------------------------------------------------------------------------------------------|
B|----#-#-#-#-#--#-#-#-#-#--#-#-#-#-#--#-#-#-#-#--#-#-#-#-#--#-#-#-#-#--#-#-#-#-#--#-#-#-#-#---------------|
G|----#-#-#-#-#--#-#-#-#-#--#-#-#-#-#--#-#-#-#-#--#-#-#-#-#--#-#-#-#-#--#-#-#-#-#--#-#-#-#-#---------------|
D|----#-#-#-#-#--#-#-#-#-#--#-#-#-#-#--#-#-#-#-#--#-#-#-#-#--#-#-#-#-#--#-#-#-#-#--#-#-#-#-#---------------|
A|----#-#-#-#-#--#-#-#-#-#--#-#-#-#-#--#-#-#-#-#--#-#-#-#-#--#-#-#-#-#--#-#-#-#-#--#-#-#-#-#---------------|
E|---------------------------------------------------------------------------------------------------------|

©2015 by Fefe - Tron544

Sigueme en:

  • YouTube - White Circle
  • Facebook - White Circle
  • Instagram - White Circle
  • Twitter - White Circle
This site was designed with the
.com
website builder. Create your website today.
Start Now