LOST IN PARADISE

JUJUTSU KAISEN

TABS ~ By Fefe (Tron544)

 

Intro:

GUITAR (Lead):

e|----------------------------------------------------------|
B|----------------------------------------------------------|
G|----------------------------------------------------------|
D|------#-8-#-#-6h8-#-6-#-#------------------------------6--|
A|--------------------------9-9-#-#-8-#-#-8-#-8-8--8--9-----|
E|--#-6-----------------------------------------------------|

e|----------------------------------------------------------|
B|----------------------------------------------------------|
G|--------------------6-#-#-6h8-----------------------------|
D|------#-8-#-#-6h8-#------------------------------------6--|
A|------------------------------#-#-8-#-#-9-#-8-8--8--9-----|
E|--#-6-----------------------------------------------------|


Verse/Estrofa:

GUITAR (Lead):

e|-------------------------------------------------------------------|
B|-------------------------------------------------------------------|
G|-------------------------------------------------------------------|
D|--#-#-8-#-#-8-#-#-8-#-#-8-#-#-6h8-#-#-8-#-#-8-#-#-8-#-#-8-#-#-6h8--|
A|-------------------------------------------------------------------|
E|-------------------------------------------------------------------|

e|------------------------------------------------------------------|
B|------------------------------------------------------------------|
G|--------------------------------------------------6/8----8\6------|
D|--#-#-8-#-#-8-#-#-8-#-#-8-#-#-6h8-#-#-8-#-#-8-#-#-6/8----8\6------|
A|------------------------------------------------------------------|

E|------------------------------------------------------------------|

e|-----------------------------------------------------------------|
B|-----------------------------------------------------------------|
G|-----------------------------------------------------------------|
D|----8-#-#-8-#-#-8-#-#-8-#-#-6h8-#-#-8-#-#-8-#-#-8-#-#-8-#-#-6h8--|
A|-----------------------------------------------------------------|
E|-----------------------------------------------------------------|

e|------------------------------------------------------------------|
B|------------------------------------------------------------------|
G|--------------------------------------------------6/8----8\6------|
D|--#-#-8-#-#-8-#-#-8-#-#-8-#-#-6h8-#-#-8-#-#-8-#-#-6/8----8\6------|
A|------------------------------------------------------------------|
E|------------------------------------------------------------------|


Pre-Chorus/Pre-Estribillo:

GUITAR (Vocals):

e|----------------|----------------------------------------------|
B|----------------|----------------------------------------------|
G|-------------8--|--10---------------10--8----10----------------|
D|--8--10--11-----|--------11----8-------------------------------|
A|----------------|----------------------------------------11----|
E|----------------|----------------------------------------------|

GUITAR (Lead):

e|--#-#-6-#-#-6-#-#-5/6-#-6-#-#-6-6-#-#-4-#-#-4-#-#-3/4-#-4-#-#-4-4--|
B|--#-#-6-#-#-6-#-#-5/6-#-6-#-#-6-6-#-#-6-#-#-6-#-#-5/6-#-6-#-#-6-6--|
G|--#-#-6-#-#-6-#-#-5/6-#-6-#-#-6-6-#-#-5-#-#-5-#-#-4/5-#-5-#-#-5-5--|
D|-------------------------------------------------------------------|
A|-------------------------------------------------------------------|
E|-------------------------------------------------------------------|

GUITAR (Vocals):

e|-----------------------------------------------------------|
B|-----------------------------------------------------------|
G|--------------------------------------------10--8----------|
D|--10---11-10---11-10--8------8/10----8-------------11--10--|
A|-------------------------11--------------------------------|
E|-----------------------------------------------------------|

GUITAR (Lead):

e|--#-#-4-#-#-4-#-#-3/4-#-4-#-#-4-4-#-#-2-#-#-2-#-#-1/2-#-2-#-#-2-2--|
B|--#-#-4-#-#-4-#-#-3/4-#-4-#-#-4-4-#-#-2-#-#-2-#-#-1/2-#-2-#-#-2-2--|
G|--#-#-5-#-#-5-#-#-4/5-#-5-#-#-5-5-#-#-3-#-#-3-#-#-2/3-#-3-#-#-3-3--|
D|-------------------------------------------------------------------|
A|-------------------------------------------------------------------|
E|-------------------------------------------------------------------|

GUITAR (Vocals):

e|------------------------------------------|
B|------------------------------------------|
G|-----------------10--8----10--------------|
D|--8----8----8-----------------------------|
A|------------------------------------------|
E|------------------------------------------|

GUITAR (Lead):

e|--#-#-6-#-#-6-#-#-5/6-#-6-#-#-6-6-#-#-4-#-#-4-#-#-3/4-#-4-#-#-4-4--|
B|--#-#-6-#-#-6-#-#-5/6-#-6-#-#-6-6-#-#-6-#-#-6-#-#-5/6-#-6-#-#-6-6--|
G|--#-#-6-#-#-6-#-#-5/6-#-6-#-#-6-6-#-#-5-#-#-5-#-#-4/5-#-5-#-#-5-5--|
D|-------------------------------------------------------------------|
A|-------------------------------------------------------------------|
E|-------------------------------------------------------------------|

GUITAR (Vocals):

e|------------------------------------------------------|
B|-----------------------------11/13----11--------------|
G|------------------------------------------------------|
D|--10---11-10---11-10--8-------------------------------|
A|-------------------------11---------------------------|
E|------------------------------------------------------|

GUITAR (Lead):

e|--#-#-4-#-#-4-#-#-3/4-#-4-#-#-4-4-6--6--6--6--6--6--6----|
B|--#-#-4-#-#-4-#-#-3/4-#-4-#-#-4-4-6--6--6--6--6--6--6----|
G|--#-#-5-#-#-5-#-#-4/5-#-5-#-#-5-5-7--7--7--7--7--7--7----|
D|---------------------------------------------------------|
A|---------------------------------------------------------|
E|---------------------------------------------------------|

LOST IN PARADISE - Tron544
00:00 / 00:00
DONATE%20BUTTON%20(EN)_edited.png

Chorus/Estribillo:

GUITAR (Vocals):

e|------------------------------------------------|
B|------------------------------------------------|
G|------------------------------------------11----|
D|--9----11----12----9----9----11----12--9--------|
A|------------------------------------------------|
E|------------------------------------------------|

GUITAR (Lead):

e|-------------------------------------------------------------------|
B|--#-#-7-#-#-7-#-#-6/7-#-7-#-#-7-7-#-#-5-#-#-5-#-#-4/5-#-5-#-#-5-5--|
G|--#-#-7-#-#-7-#-#-6/7-#-7-#-#-7-7-#-#-6-#-#-6-#-#-5/6-#-6-#-#-6-6--|
D|--#-#-9-#-#-9-#-#-8/9-#-9-#-#-9-9-#-#-7-#-#-7-#-#-6/7-#-7-#-#-7-7--|
A|-------------------------------------------------------------------|
E|-------------------------------------------------------------------|

GUITAR (Vocals):

e|-----------------------------------------------|
B|-----------------------------------------------|
G|--9--11--------11--9--7-9----------------------|
D|----------------------------7--9------12--9----|
A|-----------------------------------------------|
E|-----------------------------------------------|

GUITAR (Lead):

e|-------------------------------------------------------------------|
B|--#-#-5-#-#-5-#-#-4/5-#-5-#-#-5-5-#-#-5-#-#-5-#-#-4/5-#-5-#-#-5-5--|
G|--#-#-7-#-#-7-#-#-6/7-#-7-#-#-7-7-#-#-7-#-#-7-#-#-6/7-#-7-#-#-7-7--|
D|--#-#-6-#-#-6-#-#-5/6-#-6-#-#-6-6-#-#-6-#-#-6-#-#-5/6-#-6-#-#-6-6--|
A|-------------------------------------------------------------------|
E|-------------------------------------------------------------------|

GUITAR (Vocals):

e|-------------------------------------------------|
B|-------------------------------------------------|
G|-------------------------------------------11----|
D|--9--9--11----12----9----9----11----12--9--------|
A|-------------------------------------------------|
E|-------------------------------------------------|

GUITAR (Lead):

e|-------------------------------------------------------------------|
B|--#-#-7-#-#-7-#-#-6/7-#-7-#-#-7-7-#-#-5-#-#-5-#-#-4/5-#-5-#-#-5-5--|
G|--#-#-7-#-#-7-#-#-6/7-#-7-#-#-7-7-#-#-6-#-#-6-#-#-5/6-#-6-#-#-6-6--|
D|--#-#-9-#-#-9-#-#-8/9-#-9-#-#-9-9-#-#-7-#-#-7-#-#-6/7-#-7-#-#-7-7--|
A|-------------------------------------------------------------------|
E|-------------------------------------------------------------------|

GUITAR (Vocals):

e|-----------------------------------------------------|
B|-----------------------------------------------------|
G|--9--11--------11--11--11--11/13----11----9--11------|
D|-----------------------------------------------------|
A|-----------------------------------------------------|
E|-----------------------------------------------------|

GUITAR (Lead):

e|----------------------------------2--2--2--2--2--2--2----|
B|--#-#-3-#-#-3-#-#-2/3-#-3-#-#-3-3-2--2--2--2--2--2--2----|
G|--#-#-4-#-#-4-#-#-3/4-#-4-#-#-4-4-3--3--3--3--3--3--3----|
D|--#-#-6-#-#-6-#-#-5/6-#-6-#-#-6-6-4--4--4--4--4--4--4----|
A|---------------------------------------------------------|
E|---------------------------------------------------------|

GUITAR (Vocals):

e|------------------------------------------------|
B|--------10----12--15--12--10--------------------|
G|--11----------------------------11--------------|
D|------------------------------------------------|
A|------------------------------------------------|
E|------------------------------------------------|

GUITAR (Lead):

e|-------------------------------------------------------------------|
B|--#-#-7-#-#-7-#-#-6/7-#-7-#-#-7-7-#-#-5-#-#-5-#-#-4/5-#-5-#-#-5-5--|
G|--#-#-7-#-#-7-#-#-6/7-#-7-#-#-7-7-#-#-6-#-#-6-#-#-5/6-#-6-#-#-6-6--|
D|--#-#-9-#-#-9-#-#-8/9-#-9-#-#-9-9-#-#-7-#-#-7-#-#-6/7-#-7-#-#-7-7--|
A|-------------------------------------------------------------------|
E|-------------------------------------------------------------------|

GUITAR (Vocals):

e|------------------------------------------------|
B|--------10----12--15--12--12----14--------------|
G|--11--------------------------------------------|
D|------------------------------------------------|
A|------------------------------------------------|
E|------------------------------------------------|

GUITAR (Lead):

e|-------------------------------------------------------------------|
B|--#-#-5-#-#-5-#-#-4/5-#-5-#-#-5-5-#-#-5-#-#-5-#-#-4/5-#-5-#-#-5-5--|
G|--#-#-7-#-#-7-#-#-6/7-#-7-#-#-7-7-#-#-7-#-#-7-#-#-6/7-#-7-#-#-7-7--|
D|--#-#-6-#-#-6-#-#-5/6-#-6-#-#-6-6-#-#-6-#-#-6-#-#-5/6-#-6-#-#-6-6--|
A|-------------------------------------------------------------------|
E|-------------------------------------------------------------------|

GUITAR (Vocals):

e|------------------------------------------------|
B|--------10----12--15--12--10--------------------|
G|--11----------------------------11--------------|
D|------------------------------------------------|
A|------------------------------------------------|
E|------------------------------------------------|

GUITAR (Lead):

e|-------------------------------------------------------------------|
B|--#-#-7-#-#-7-#-#-6/7-#-7-#-#-7-7-#-#-5-#-#-5-#-#-4/5-#-5-#-#-5-5--|
G|--#-#-7-#-#-7-#-#-6/7-#-7-#-#-7-7-#-#-6-#-#-6-#-#-5/6-#-6-#-#-6-6--|
D|--#-#-9-#-#-9-#-#-8/9-#-9-#-#-9-9-#-#-7-#-#-7-#-#-6/7-#-7-#-#-7-7--|
A|-------------------------------------------------------------------|
E|-------------------------------------------------------------------|

GUITAR (Vocals):

e|------------------------------------------------|
B|--------10----12--15--12--12----14--------------|
G|--11--------------------------------------------|
D|------------------------------------------------|
A|------------------------------------------------|
E|------------------------------------------------|

GUITAR (Lead):

e|----------------------------------2--2--2--2--2--2--2----|
B|--#-#-3-#-#-3-#-#-2/3-#-3-#-#-3-3-2--2--2--2--2--2--2----|
G|--#-#-4-#-#-4-#-#-3/4-#-4-#-#-4-4-3--3--3--3--3--3--3----|
D|--#-#-6-#-#-6-#-#-5/6-#-6-#-#-6-6-4--4--4--4--4--4--4----|
A|---------------------------------------------------------|
E|---------------------------------------------------------|

 


Outro:

GUITAR (Vocals):

e|------------------------------------------------------|
B|------------------------------------------------------|
G|--11----9h11----9--7-------11--11--9h11----9--7-------|
D|----------------------9--------------------------9----|
A|------------------------------------------------------|
E|------------------------------------------------------|

GUITAR (Lead):

e|-------------------------------------------------------------------|
B|--#-#-7-#-#-7-#-#-6/7-#-7-#-#-7-7-#-#-5-#-#-5-#-#-4/5-#-5-#-#-5-5--|
G|--#-#-7-#-#-7-#-#-6/7-#-7-#-#-7-7-#-#-6-#-#-6-#-#-5/6-#-6-#-#-6-6--|
D|--#-#-9-#-#-9-#-#-8/9-#-9-#-#-9-9-#-#-7-#-#-7-#-#-6/7-#-7-#-#-7-7--|
A|-------------------------------------------------------------------|
E|-------------------------------------------------------------------|

GUITAR (Vocals):

e|---------------------------------------------------|
B|---------------------------------------------------|
G|--11--11--9h11----9--7-----------------------------|
D|------------------------9------12--9----12---9-----|
A|---------------------------------------------------|
E|---------------------------------------------------|

GUITAR (Lead):

e|-------------------------------------------------------------------|
B|--#-#-5-#-#-5-#-#-4/5-#-5-#-#-5-5-#-#-5-#-#-5-#-#-4/5-#-5-#-#-5-5--|
G|--#-#-7-#-#-7-#-#-6/7-#-7-#-#-7-7-#-#-7-#-#-7-#-#-6/7-#-7-#-#-7-7--|
D|--#-#-6-#-#-6-#-#-5/6-#-6-#-#-6-6-#-#-6-#-#-6-#-#-5/6-#-6-#-#-6-6--|
A|-------------------------------------------------------------------|
E|-------------------------------------------------------------------|

GUITAR (Vocals):

e|------------------------------------------------------|
B|------------------------------------------------------|
G|--11----9h11----9--7-------11--11--9h11----9--7-------|
D|----------------------9--------------------------9----|
A|------------------------------------------------------|
E|------------------------------------------------------|

GUITAR (Lead):

e|-------------------------------------------------------------------|
B|--#-#-7-#-#-7-#-#-6/7-#-7-#-#-7-7-#-#-5-#-#-5-#-#-4/5-#-5-#-#-5-5--|
G|--#-#-7-#-#-7-#-#-6/7-#-7-#-#-7-7-#-#-6-#-#-6-#-#-5/6-#-6-#-#-6-6--|
D|--#-#-9-#-#-9-#-#-8/9-#-9-#-#-9-9-#-#-7-#-#-7-#-#-6/7-#-7-#-#-7-7--|
A|-------------------------------------------------------------------|
E|-------------------------------------------------------------------|

GUITAR (Vocals):

e|---------------------------------------------------------------|
B|---------------------------10----------------------------------|
G|--11----9h11----9--7-----------11-9-11--9-7-9--7---7-----------|
D|----------------------9--------------------------9----9-7-9----|
A|---------------------------------------------------------------|
E|---------------------------------------------------------------|

GUITAR (Lead):

e|----------------------------------2--2--2--2--2--2--2--2--7----|
B|--#-#-3-#-#-3-#-#-2/3-#-3-#-#-3-3-2--2--2--2--2--2--2--2--7----|
G|--#-#-4-#-#-4-#-#-3/4-#-4-#-#-4-4-3--3--3--3--3--3--3--3--7----|
D|--#-#-6-#-#-6-#-#-5/6-#-6-#-#-6-6-4--4--4--4--4--4--4--4--9----|
A|---------------------------------------------------------------|
E|---------------------------------------------------------------|

©2015 by Fefe - Tron544

Sigueme en:

  • YouTube - White Circle
  • Facebook - White Circle
  • Instagram - White Circle
  • Twitter - White Circle
This site was designed with the
.com
website builder. Create your website today.
Start Now