LOS! LOS! LOS!

YOUJO SENKI

TABS ~ By Fefe (Tron544)

 

Intro:

GUITAR (Vocals):

e|-----------------------------------------------------|
B|---------------------12------------------------------|
G|--9--9--9-9-9--9--9--------9-9-9--9--9--9-9-9--12----|
D|-----------------------------------------------------|
A|-----------------------------------------------------|
E|-----------------------------------------------------|

GUITAR (Rhythm):

D|---------|-----------------------------------------|
A|---------|-----------------------------------------|
F|---------|-----------------------------------------|
C|---------|--4----------------4------------4(PH)----|
G|---------|--4----------------4---------------------|
C|--12\----|--4----------------4---------------------|

GUITAR (Vocals):

e|-----------------------------------------------------|
B|---------------------12------------------------------|
G|--9--9--9-9-9--9--9--------9-9-9--9--9--9-9-9--12----|
D|-----------------------------------------------------|
A|-----------------------------------------------------|
E|-----------------------------------------------------|

GUITAR (Rhythm):

D|---------------------------------------------------------------|
A|---------------------------------------------------------------|
F|---------------------------------------------------------------|
C|--4--x-x-x-x-x-x-x-x-x-x-2--3--4--x-x-x-x-x-x-x-x-x-x-4(PH)----|
G|--4--x-x-x-x-x-x-x-x-x-x-2--3--4--x-x-x-x-x-x-x-x-x-x----------|
C|--4--x-x-x-x-x-x-x-x-x-x-2--3--4--x-x-x-x-x-x-x-x-x-x----------|

 


Chorus/Estribillo:

GUITAR (Vocals):

e|----------------------------------------------------|
B|--------------7--7--7--7--8--8-8-8--8--10----8--10--|
G|--9--9--9--9----------------------------------------|
D|----------------------------------------------------|
A|----------------------------------------------------|
E|----------------------------------------------------|

GUITAR (Rhythm):

D|--------------------------------------|
A|--------------------------------------|
F|---------------------------------6----|
C|--4--------2--------0------------6----|
G|--4--------2--------0------------4----|
C|--4--------2--------0-----------------|

GUITAR (Vocals):

e|----------------------------------------------------------------|
B|--10/12----12--12--10----10--12--12/13--12--10--8--8h10----8----|
G|----------------------------------------------------------------|
D|----------------------------------------------------------------|
A|----------------------------------------------------------------|
E|----------------------------------------------------------------|

GUITAR (Rhythm):

D|-------------------------------------------------------|
A|-------------------------------------------------------|
F|--4---4---4--6---6---6--7--x-x-x-x-x-x-9--x-x----------|
C|--4---4---4--6---6---6--7--x-x-x-x-x-x-9--x-x-4(PH)----|
G|--2---2---2--4---4---4--5--x-x-x-x-x-x-7--x-x----------|
C|-------------------------------------------------------|

GUITAR (Vocals):

e|-------------------------------------|
B|-------------------------------------|
G|--7/9--------------------------------|
D|-------------------------------------|
A|-------------------------------------|
E|-------------------------------------|

GUITAR (Rhythm):

D|------------------------------------|
A|------------------------------------|
F|------------------------------------|
C|--4----------------4----------------|
G|--4----------------4----------------|
C|--4----------------4----------------|

 


Verse/Estrofa:

GUITAR (Vocals):

e|----------------------------------------------|
B|----------------------------------------------|
G|-------5--7--8--5-8-----5--5--7--8--9---5-----|
D|----7-----------------------------------------|
A|----------------------------------------------|
E|----------------------------------------------|

GUITAR (Rhythm):

D|----------------------------------------------|
A|----------------------------------------------|
F|----------------------------------------------|
C|----------------------------------------------|
G|----------------------------------------7-----|
C|--9--9--6--6--7---4-----9--9--6--6--7---------|

GUITAR (Vocals):

e|---------------------------------------------|
B|-----------------------8---------------------|
G|----9----8--9-9--9--------5--8--8--7---5-----|
D|---------------------------------------------|
A|---------------------------------------------|
E|---------------------------------------------|

GUITAR (Rhythm):

D|----------------------------------------------|
A|----------------------------------------------|
F|----------------------------------------------|
C|----------------------------------------------|
G|----------------------------------------------|
C|--9--9--6--6--7---4-----7--0--3--3--2---0-----|

GUITAR (Vocals):

e|----------------------------------------------|
B|----------------------------------------------|
G|--8----7--5--7/8--------8----7--5--7/8--------|
D|----------------------------------------------|
A|----------------------------------------------|
E|----------------------------------------------|

GUITAR (Rhythm):

D|----------------------------------------------|
A|----------------------------------------------|
F|----------------------------------------------|
C|----------------------------------------------|
G|----------------------------------------7-----|
C|--9--9--6--6--7---4-----9--9--6--6--7---------|

GUITAR (Vocals):

e|-----------------------------------------------------|
B|---------------------12------------------------------|
G|--9--9--9-9-9--9--9--------9-9-9--9--9--9-9-9--12----|
D|-----------------------------------------------------|
A|-----------------------------------------------------|
E|-----------------------------------------------------|

GUITAR (Rhythm):

D|----------------------------------------------------------------------------|
A|----------------------------------------------------------------------------|
F|----------------------------------------------------------------------------|
C|--4--x-x-x-x-x-x-x-x-x-x-4(PH)---------4--x-x-x-x-x-x-x-x-x-x---------------|
G|--4--x-x-x-x-x-x-x-x-x-x--------4(PH)--4--x-x-x-x-x-x-x-x-x-x---------------|
C|--4--x-x-x-x-x-x-x-x-x-x---------------4--x-x-x-x-x-x-x-x-x-x-7(PH)--6(PH)--|

GUITAR (Vocals):

e|-----------------------------------------------------|
B|---------------------12------------------------------|
G|--9--9--9-9-9--9--9--------9-9-9--9--9--9-9-9--12----|
D|-----------------------------------------------------|
A|-----------------------------------------------------|
E|-----------------------------------------------------|

GUITAR (Rhythm):

D|-----------------------------------------------------------------------|
A|-----------------------------------------------------------------------|
F|-----------------------------------------------------------------------|
C|--4--x-x-x-x-x-x-x-x-x-x-4(PH)---------4--x-x-x-x-x-x-x-x-x-x-x-x-x-x--|
G|--4--x-x-x-x-x-x-x-x-x-x--------4(PH)--4--x-x-x-x-x-x-x-x-x-x-x-x-x-x--|
C|--4--x-x-x-x-x-x-x-x-x-x---------------4--x-x-x-x-x-x-x-x-x-x-x-x-x-x--|

Los! Los! Los! - Tron544
00:00 / 00:00
DONATE%20BUTTON%20(EN)_edited.png

Pre-Chorus/Pre-Estribillo:

GUITAR (Vocals):

e|--------------------------------------------------|
B|--------------------------5-----------------------|
G|--4--4--4--4--4--4-4---4-----4--4--4--4----7---4--|
D|-----------------------------------------7--------|
A|--------------------------------------------------|
E|--------------------------------------------------|

GUITAR (Rhythm):

D|------------------------------------------------------------|
A|------------------------------------------------------------|
F|--6--x-x-x-x-x-x-x-x-x-x-x-x-x-x-6--x-x-x-x-x-x-4-----------|
C|--6--x-x-x-x-x-x-x-x-x-x-x-x-x-x-6--x-x-x-x-x-x----7--6-----|
G|--4--x-x-x-x-x-x-x-x-x-x-x-x-x-x-4--x-x-x-x-x-x----------7--|
C|------------------------------------------------------------|

GUITAR (Vocals):

e|------------------------------------------------------------------|
B|--5-----------------------5----5----5----5----9/10----------------|
G|-----4--4--4--4----7---4------------------------------------------|
D|-----------------7------------------------------------------------|
A|------------------------------------------------------------------|
E|------------------------------------------------------------------|

GUITAR (Rhythm):

D|---------------------------------------------------------------------|
A|---------------------------------------------------------------------|
F|--6--x-x-6--x-x-6--x-x-6--x-x-6----6----6----6-----------------------|
C|--6--x-x-6--x-x-6--x-x-6--x-x-6----6----6----6--------------2--------|
G|--4--x-x-4--x-x-4--x-x-4--x-x-4----4----4----4--------------2--------|
C|------------------------------------------------------------2--------|


Chorus/Estribillo:

GUITAR (Vocals):

e|----------------------------------------------------|
B|--------------7--7--7--7--8--8-8-8--8--10----8--10--|
G|--9--9--9--9----------------------------------------|
D|----------------------------------------------------|
A|----------------------------------------------------|
E|----------------------------------------------------|

GUITAR (Rhythm):

D|------------------------------------------------------|
A|------------------------------------------------------|
F|---------------6--6--6-6-6--7--7--7-7-7--9--9--9-9-9--|
C|--4--4--4-4-4--6--6--6-6-6--7--7--7-7-7--9--9--9-9-9--|
G|--4--4--4-4-4--4--4--4-4-4--5--5--5-5-5--7--7--7-7-7--|
C|--4--4--4-4-4-----------------------------------------|

GUITAR (Vocals):

e|----------------------------------------------------------------|
B|--10/12----12--12--10----10--12--12/13--12--10--8--8h10----8----|
G|----------------------------------------------------------------|
D|----------------------------------------------------------------|
A|----------------------------------------------------------------|
E|----------------------------------------------------------------|

GUITAR (Rhythm):

D|----------------------------------------------------------|
A|----------------------------------------------------------|
F|---------------6--6--6-6-6--7---7---7--(9)-x-x-x----------|
C|--4--4--4-4-4--6--6--6-6-6--7---7---7--(9)-x-x-x-4(PH)----|
G|--4--4--4-4-4--4--4--4-4-4--5---5---5--(7)-x-x-x----------|
C|--4--4--4-4-4---------------------------------------------|

GUITAR (Vocals):

e|----------------------------------------------------|
B|--------------7--7--7--7--8--8-8-8--8--10----8--10--|
G|--9--9--9--9----------------------------------------|
D|----------------------------------------------------|
A|----------------------------------------------------|
E|----------------------------------------------------|

GUITAR (Rhythm):

D|------------------------------------------------------|
A|------------------------------------------------------|
F|---------------6--6--6-6-6--7--7--7-7-7--9--9--9-9-9--|
C|--4--4--4-4-4--6--6--6-6-6--7--7--7-7-7--9--9--9-9-9--|
G|--4--4--4-4-4--4--4--4-4-4--5--5--5-5-5--7--7--7-7-7--|
C|--4--4--4-4-4-----------------------------------------|

GUITAR (Vocals):

e|----------------------------------------------------------------|
B|--10/12----12--12--10----10--12--12/13--12--10--8--8h10----8----|
G|----------------------------------------------------------------|
D|----------------------------------------------------------------|
A|----------------------------------------------------------------|
E|----------------------------------------------------------------|

GUITAR (Rhythm):

D|----------------------------------------------------------|
A|----------------------------------------------------------|
F|---------------6--6--6-6-6--7---7---7--(9)-x-x-x-x-x-x-x--|
C|--4--4--4-4-4--6--6--6-6-6--7---7---7--(9)-x-x-x-x-x-x-x--|
G|--4--4--4-4-4--4--4--4-4-4--5---5---5--(7)-x-x-x-x-x-x-x--|
C|--4--4--4-4-4---------------------------------------------|

GUITAR (Vocals):

e|------------------------------------------------------|
B|--12--10--8--10--12----10----8----12--13--12----10----|
G|------------------------------------------------------|
D|------------------------------------------------------|
A|------------------------------------------------------|
E|------------------------------------------------------|

GUITAR (Rhythm):

D|--------------------------------------------|
A|--------------------------------------------|
F|--6----6----7----7----9----9----11----11----|
C|--6----6----7----7----9----9----11----11----|
G|--4----4----5----5----7----7----9-----9-----|
C|--------------------------------------------|

GUITAR (Vocals):

e|---------------------------------------------------------------------------|
B|--12--10--8--10--12----10----8----12--13--12----10----10/12----------------|
G|---------------------------------------------------------------------------|
D|---------------------------------------------------------------------------|
A|---------------------------------------------------------------------------|
E|---------------------------------------------------------------------------|

GUITAR (Rhythm):

D|--------------------------------------------------------------------------------------------------|
A|--------------------------------------------------------------------------------------------------|
F|--6--6--6-6-6--7--7--7-7-7--9--9--9-9-9--11--11--11-11-11-----------------------------------------|
C|--6--6--6-6-6--7--7--7-7-7--9--9--9-9-9--11--11--11-11-11--#-#-4(PH)--#-#-4(PH)--#-#-#-#-4(PH)----|
G|--4--4--4-4-4--5--5--5-5-5--7--7--7-7-7--9---9---9--9--9---#-#--------#-#--------#-#-#-#----------|
C|-----------------------------------------------------------#-#--------#-#--------#-#-#-#----------|

 


Outro:

GUITAR (Vocals):

e|-----------------------------------------------------|
B|---------------------12------------------------------|
G|--9--9--9-9-9--9--9--------9-9-9--9--9--9-9-9--12----|
D|-----------------------------------------------------|
A|-----------------------------------------------------|
E|-----------------------------------------------------|

GUITAR (Rhythm):

D|------------------------------------------------------------|
A|------------------------------------------------------------|
F|------------------------------------------------------------|
C|--4--x-x-x-x-x-x-x-x-x-x-0--2--4--x-x-x-x-x-x-x-x-x-x-7--6--|
G|--4--x-x-x-x-x-x-x-x-x-x-0--2--4--x-x-x-x-x-x-x-x-x-x-7--6--|
C|--4--x-x-x-x-x-x-x-x-x-x-0--2--4--x-x-x-x-x-x-x-x-x-x-7--6--|

GUITAR (Vocals):

e|-----------------------------------------------------|
B|---------------------12------------------------------|
G|--9--9--9-9-9--9--9--------9-9-9--9--9--9-9-9--12----|
D|-----------------------------------------------------|
A|-----------------------------------------------------|
E|-----------------------------------------------------|

GUITAR (Rhythm):

D|---------------------------------------------------------|
A|---------------------------------------------------------|
F|---------------------------------------------------6--6--|
C|--4--x-x-2--x-x-0--x-x-2--x-x-4--x-x-2--x-x-0--x-x-6--6--|
G|--4--x-x-2--x-x-0--x-x-2--x-x-4--x-x-2--x-x-0--x-x-4--4--|
C|--4--x-x-2--x-x-0--x-x-2--x-x-4--x-x-2--x-x-0--x-x-------|

©2015 by Fefe - Tron544

Sigueme en:

  • YouTube - White Circle
  • Facebook - White Circle
  • Instagram - White Circle
  • Twitter - White Circle
This site was designed with the
.com
website builder. Create your website today.
Start Now