~ LOOP-THE-LOOP ~

TABLATURAS ~ By Fefe - Tron544

 

Intro: x2

 

  /~(REPEAT x3 / REPITE x3)~\

e|---------------------------|---------------------------|

B|---------------------------|---------------------------|

G|---------------------------|---------------------------|

D|--2--2--2---6--6--6--7--7--|--2--2--2------------------|

A|--2--2--2------------------|--2--2--2---7--7--7--5--5--|

E|--0--0--0------------------|--0--0--0------------------|

 

 

Verse/Estrofa:

 

GUITAR 1:

 

e|---------0--|

B|---------0--|

G|---------1--|

D|--2---------|

A|--2---------|

E|--0---------|

 

GUITAR 2:

 

e|----------------------------------------------------------------------|

B|--9--10--12--------------------------------------10--9-------------9--|

G|-------------9----9--9--9--9--11--9---9------9----------11--9--11-----|

D|-----------------------------------------11---------------------------|

A|----------------------------------------------------------------------|

E|----------------------------------------------------------------------|

 

GUITAR 1:

 

e|---------0--|

B|---------0--|

G|---------1--|

D|--2---------|

A|--2---------|

E|--0---------|

 

GUITAR 2:

 

e|---------------------------------------------------------------|

B|--12--------------------------------------10--9----------------|

G|------9----9--9--9--9--11--9---9------9----------11--9--9--11--|

D|----------------------------------11---------------------------|

A|---------------------------------------------------------------|

E|---------------------------------------------------------------|

 

 

Pre-Chorus/Pre-Estribillo:

 

GUITAR 1:

 

e|---------------------------------------|-----------------------------|

B|---------------------------------------|-----------------------------|

G|--(6)-x--6--x--x--6--x--x--6--x--x--6--|--(2)-x--2--x--x--2---4---4--|

D|--(6)-x--6--x--x--6--x--x--6--x--x--6--|--(2)-x--2--x--x--2---4---4--|

A|--(4)-x--4--x--x--4--x--x--4--x--x--4--|--(0)-x--0--x--x--0---2---2--|

E|---------------------------------------|-----------------------------|

 

GUITAR 2:

 

e|------------------------------|--------------------------------------|

B|------------------------------|--------------------------------------|

G|----------13--------------13--|----------14--13------11--14--13--11--|

D|--11--11----------11--11------|--11--11------------------------------|

A|------------------------------|--------------------------------------|

E|------------------------------|--------------------------------------|

 

GUITAR 1:

 

e|---------------------------------------|-----------------------------|

B|---------------------------------------|-----------------------------|

G|--(6)-x--6--x--x--6--x--x--6--x--x--6--|--(2)-x--2--x--x--2---4---4--|

D|--(6)-x--6--x--x--6--x--x--6--x--x--6--|--(2)-x--2--x--x--2---4---4--|

A|--(4)-x--4--x--x--4--x--x--4--x--x--4--|--(0)-x--0--x--x--0---2---2--|

E|---------------------------------------|-----------------------------|

 

GUITAR 2:

 

e|------------------------------|------------------------------------------------------|

B|------------------------------|------------------------------------------------------|

G|----------13--------------13--|----------13------11--14--13------------------11------|

D|--11--11----------11--11------|--11--11----------------------14--14--13--14------14--|

A|------------------------------|------------------------------------------------------|

E|------------------------------|------------------------------------------------------|

 

GUITAR 1:

 

e|---------------|------------------------------|

B|---------------|------------------------------|

G|---------------|------------------------------|

D|--6----7----9--|--6----7----9----(9)-x--x--x--|

A|--6----7----9--|--6----7----9----(9)-x--x--x--|

E|--4----5----7--|--4----5----7----(7)-x--x--x--|

 

GUITAR 2:

 

e|------------------|------------------------------------------------|

B|------------------|--------------------------------------------12--|

G|--14--13--11------|--------------------------11----13--13--14------|

D|--------------14--|--11--13--13--14--14--14------------------------|

A|------------------|------------------------------------------------|

E|------------------|------------------------------------------------|

 

 

Chorus/Estribillo:

 

GUITAR 1:

 

e|------------|------------|

B|------------|------------|

G|---------4--|--6------4--|

D|--2------4--|--6------4--|

A|--2------2--|--4------2--|

E|--0---------|------------|

 

GUITAR 2:

 

e|--------------------------------------------------|------------------------------------------|

B|--12--12--12--12--12------14--12--14--12--14--12--|------------------------------------------|

G|--------------------------------------------------|--14--13--11--13------13--------------11--|

D|----------------------14--------------------------|------------------14------14------14------|

A|--------------------------------------------------|------------------------------------------|

E|--------------------------------------------------|------------------------------------------|

 

GUITAR 1:

 

e|------------|------------|

B|------------|------------|

G|--5------2--|--4------4--|

D|--5------2--|--4------4--|

A|--3------0--|--2------2--|

E|------------|------------|

 

GUITAR 2:

 

e|---------------------------------------|--------------------------------------------------|

B|---------------------------------------|--12--12--12--12--12--12--14--12--------------12--|

G|--12------12-------14------14----------|----------------------------------14--13--14------|

D|------14------14-------14------14--14--|--------------------------------------------------|

A|---------------------------------------|--------------------------------------------------|

E|---------------------------------------|--------------------------------------------------|

 

GUITAR 1:

 

e|------------|------------|

B|------------|------------|

G|---------4--|--6------4--|

D|--2------4--|--6------4--|

A|--2------2--|--4------2--|

E|--0---------|------------|

 

GUITAR 2:

 

e|--------------------------------------------------|----------------------------------------------|

B|--12--12--12--12--12------14--12--14--12--14--12--|----------------------------------------------|

G|--------------------------------------------------|--14--13--11--11--13------13--------------11--|

D|----------------------14--------------------------|----------------------14------14------14------|

A|--------------------------------------------------|----------------------------------------------|

E|--------------------------------------------------|----------------------------------------------|

 

GUITAR 1:

 

e|------------|------------|

B|------------|------------|

G|--5------2--|--4------4--|

D|--5------2--|--4------4--|

A|--3------0--|--2------2--|

E|------------|------------|

 

GUITAR 2:

 

e|---------------------------------------|--------------------------|

B|---------------------------------------|--12--12------------------|

G|--12------12-------14------14----------|--------------14--13--11--|

D|------14------14-------14------14--14--|--------------------------|

A|---------------------------------------|--------------------------|

E|---------------------------------------|--------------------------|

 

GUITAR 1:

 

e|-------------------|---------------|-------------------------------|

B|-------------------|---------------|-------------------------------|

G|--2----4---5----2--|--9----8----6--|--(2)-x--x--x--x--x--2---2--2--|

D|--2----4---5----2--|--9----9----6--|--(2)-x--x--x--x--x--2---2--2--|

A|--0----2---3----0--|--7----6----4--|--(0)-x--x--x--x--x--0---0--0--|

E|-------------------|---------------|-------------------------------|

 

GUITAR 2:

 

e|--------------------------------------|------------------|--------------------------------------|

B|--------------------------------------|--------------14--|--------------------------------------|

G|--------------------11------11----11--|--13--12--13------|--14--14--14--14--13----------11------|

D|--14----10--12--14------14------------|------------------|----------------------14--14------14--|

A|--------------------------------------|------------------|--------------------------------------|

E|--------------------------------------|------------------|--------------------------------------|

 

 

Outro:

 

  /~(REPEAT x3 / REPITE x3)~\

e|---------------------------|---------------------------|-----------|

B|---------------------------|---------------------------|-----------|

G|---------------------------|---------------------------|-----------|

D|--2--2--2---6--6--6--7--7--|--2--2--2------------------|--2--2--2--|

A|--2--2--2------------------|--2--2--2---7--7--7--5--5--|--2--2--2--|

E|--0--0--0------------------|--0--0--0------------------|--0--0--0--|

 

 

Loop-the-Loop - Tron544
00:00 / 00:00

©2019 by Fefe - Tron544

Sigueme en:

  • YouTube - White Circle
  • Facebook - White Circle
  • Instagram - White Circle
  • Twitter - White Circle
This site was designed with the
.com
website builder. Create your website today.
Start Now