LISTEN TO THE STEREO!!

KATEKYO HITMAN REBORN!

TABS ~ By Fefe (Tron544)

 

Intro:

 

GUITAR 1:

 

e|-------------------------------------------------------|

B|-------------------------------------------------------|

G|-----------------------------(5)-x--x--x---x--x--x--x--|

D|--(5)-x--x--x---x--x--x--x---(5)-x--x--x---x--x--x--x--|

A|--(5)-x--x--x---x--x--x--x---(3)-x--x--x---x--x--x--x--|

E|--(3)-x--x--x---x--x--x--x-----------------------------|

 

GUITAR 2:

 

e|----------------------------------|

B|----------------------------------|

G|--12--12--12--12--11--9-----------|

D|-------------------------12---10--|

A|----------------------------------|

E|----------------------------------|

 

GUITAR 1:

 

e|--------------------------------------------------|

B|--------------------------------------------------|

G|--(4)-x--x--x---(8)-x--x--x---(9)-x--x--x---9--9--|

D|--(4)-x--x--x---(8)-x--x--x---(9)-x--x--x---9--9--|

A|--(2)-x--x--x---(6)-x--x--x---(7)-x--x--x---7--7--|

E|--------------------------------------------------|

 

GUITAR 2:

 

e|-----------------------|

B|-----------------------|

G|-----------9---11--12--|

D|--12---12--------------|

A|-----------------------|

E|-----------------------|

 

GUITAR 1:

 

e|--------------------------------------------------------------|

B|--------------------------------------------------------------|

G|---------------------7------/-9---/-11---/-12---/-14--14--14--|

D|--7--7--7--7--7--7---7----------------------------------------|

A|--7--7--7--7--7--7---5------/-7---/-9----/-10---/-12--12--12--|

E|--5--5--5--5--5--5--------------------------------------------|

 

GUITAR 2:

 

e|------------------------------------|

B|------------------------------------|

G|------------------------------------|

D|--9------------10---9---------------|

A|-----10--10------------12---10--10--|

E|------------------------------------|

 

GUITAR 1:

 

e|------------------------------------------------------------------------------|

B|------------------------------------------------------------------------------|

G|---------------------5--5--5--5--5--5---4--4--4---8--8--8---9--9--9--9--9--9--|

D|--5--5--5--5--5--5---5--5--5--5--5--5---4--4--4---8--8--8---9--9--9--9--9--9--|

A|--5--5--5--5--5--5---3--3--3--3--3--3---2--2--2---6--6--6---7--7--7--7--7--7--|

E|--3--3--3--3--3--3------------------------------------------------------------|

 

GUITAR 2:

 

e|-------------------------------------------------------|

B|-------------------------------------------------------|

G|--12--12--12--12--11--9--------------------9---11--12--|

D|-------------------------12---10--12---12--------------|

A|-------------------------------------------------------|

E|-------------------------------------------------------|

 

GUITAR 1:

 

e|------------------------|

B|------------------------|

G|---------------------7--|

D|--7--7--7--7--7--7---7--|

A|--7--7--7--7--7--7---5--|

E|--5--5--5--5--5--5------|

 

GUITAR 2:

 

e|----------------------------------------|

B|----------------------------------------|

G|----------------------------------------|

D|--9----------------10---9---------------|

A|-----10--10----10----------12---10--10--|

E|----------------------------------------|

 

GUITAR 1:

 

e|--------------------------------------------------------------------|

B|--------------------------------------------------------------------|

G|--------------------------------------------------------------------|

D|--5--5--5--5--5---5--5--5--5--5------5--5--5--5--5---5--5--5--5--5--|

A|--5--5--5--5--5---5--5--5--5--5------5--5--5--5--5---5--5--5--5--5--|

E|--3--3--3--3--3---3--3--3--3--3------3--3--3--3--3---3--3--3--3--3--|

 

 

Verse/Estrofa:

 

GUITAR 1:

 

e|--------------------------------------------------------------------|

B|--------------------------------------------------------------------|

G|--------------------------------------------------------------------|

D|--5--5--5--5--5---5--5--5--5--5------5--5--5--5--5---5--5--5--5--5--|

A|--5--5--5--5--5---5--5--5--5--5------5--5--5--5--5---5--5--5--5--5--|

E|--3--3--3--3--3---3--3--3--3--3------3--3--3--3--3---3--3--3--3--3--|

 

GUITAR 2:

 

e|------------------------------------|

B|------------------------------------|

G|---------------------------------9--|

D|--12--12--12--12--12--12--12--9-----|

A|------------------------------------|

E|------------------------------------|

 

GUITAR 1:

 

e|--------------------------------------------------------------------------|

B|--------------------------------------------------------------------------|

G|--------------------------------------------------------------------------|

D|--5--5--5--5--5---5--5--5--5--5------5--5--5--5--5---5--5--5--5--5--------|

A|--5--5--5--5--5---5--5--5--5--5------5--5--5--5--5---5--5--5--5--5--------|

E|--3--3--3--3--3---3--3--3--3--3------3--3--3--3--3---3--3--3--3--3---5-b--|

 

GUITAR 2:

 

e|---------------------------------|

B|---------------------------------|

G|---------------------------------|

D|--9--9--9--9--10--9--------------|

A|---------------------12--10--10--|

E|---------------------------------|

 

GUITAR 1:

 

e|-----------------------------------------------------------------------------------|

B|-----------------------------------------------------------------------------------|

G|---------------------------------------------------------------------5-b-r-p-3-----|

D|--5--5--5--5--5---5--5--5--5--5------5--5--5--5--5---5--5--5--5--5--------------5--|

A|--5--5--5--5--5---5--5--5--5--5------5--5--5--5--5---5--5--5--5--5-----------------|

E|--3--3--3--3--3---3--3--3--3--3------3--3--3--3--3---3--3--3--3--3-----------------|

 

GUITAR 2:

 

e|------------------------------------|

B|------------------------------------|

G|---------------------------------9--|

D|--12--12--12--12--12--12--12--9-----|

A|------------------------------------|

E|------------------------------------|

 

GUITAR 1:

 

e|-----------------------------------------------------------------------------|

B|-----------------------------------------------------------------------------|

G|-----------------------------------------------------------------------3-----|

D|--5--5--5--5--5---5--5--5--5--5------5--5--5--5--5---5--5--5--5--5--5-----5--|

A|--5--5--5--5--5---5--5--5--5--5------5--5--5--5--5---5--5--5--5--5-----------|

E|--3--3--3--3--3---3--3--3--3--3------3--3--3--3--3---3--3--3--3--3-----------|

 

GUITAR 2:

 

e|---------------------------------|

B|---------------------------------|

G|---------------------------------|

D|--9--9--9--9--10--9--------------|

A|---------------------12--10--10--|

E|---------------------------------|

LISTEN TO THE STEREO!! - Tron544
00:00 / 00:00
DONATE%20BUTTON%20(EN)_edited.png

Pre-Chorus/Pre-Estribillo:

 

GUITAR 1:

 

e|--------------------------------------------------------------------------|

B|--------------------------------------------------------------------------|

G|---------------------------------------------6--5-----5-------8----5---7--|

D|-----7--6-----6----------9--8-----8----------------6-----6---------5---7--|

A|-----------7-----7-------------9-----9----4-------------------6----3---5--|

E|--5-------------------7---------------------------------------------------|

 

GUITAR 2:

 

e|---------------------------------------------------------------------|

B|---------------------------------------------------------------------|

G|-------------------------------------------------------9------9--11--|

D|--------------9------8--9--11------11--10--11--13---------12---------|

A|--12--11--12---------------------------------------------------------|

E|---------------------------------------------------------------------|

 

 

Chorus/Estribillo:

 

GUITAR 1:

 

e|------------------------------------------------------------------------------|

B|------------------------------------------------------------------------------|

G|---------------------5--5--5--5--5--5---4--4--4---8--8--8---9--9--9--9--9--9--|

D|--5--5--5--5--5--5---5--5--5--5--5--5---4--4--4---8--8--8---9--9--9--9--9--9--|

A|--5--5--5--5--5--5---3--3--3--3--3--3---2--2--2---6--6--6---7--7--7--7--7--7--|

E|--3--3--3--3--3--3------------------------------------------------------------|

 

GUITAR 2:

 

e|-------------------------------------------------------|

B|-------------------------------------------------------|

G|--12--12--12--12--11--9--------------------9---11--12--|

D|-------------------------12---10--12---12--------------|

A|-------------------------------------------------------|

E|-------------------------------------------------------|

 

GUITAR 1:

 

e|-----------------------------------------------------------------------|

B|-----------------------------------------------------------------------|

G|----------------------------------------7--7---9--9---11--11---14--14--|

D|--7--7--7--7--7--7---7--7--7--7--7--7----------------------------------|

A|--7--7--7--7--7--7---7--7--7--7--7--7---5--5---7--7---9---9----12--12--|

E|--5--5--5--5--5--5---5--5--5--5--5--5----------------------------------|

 

GUITAR 2:

 

e|--------------------------------------------------|

B|--------------------------------------------------|

G|--------------------------------------------------|

D|--9----------------10--9----------9---10-p-9------|

A|-----10--10----10---------12--10--------------12--|

E|--------------------------------------------------|

 

GUITAR 1:

 

e|------------------------------------------14------15------14------|

B|--12------12------13------13------12------------------------------|

G|------12------12------12------12------12------12------12------12--|

D|------------------------------------------------------------------|

A|------------------------------------------------------------------|

E|------------------------------------------------------------------|

 

GUITAR 2:

 

e|-------------------------------------------------------|

B|-------------------------------------------------------|

G|--12--12--12--12--11--9--------------------9---11--12--|

D|-------------------------12---10--12---12--------------|

A|-------------------------------------------------------|

E|-------------------------------------------------------|

 

GUITAR 1:

 

e|--12------12-------|

B|------13-----------|

G|----------------7--|

D|----------------7--|

A|----------------5--|

E|-------------------|

 

GUITAR 2:

 

e|------------------------------------|

B|------------------------------------|

G|------------------------------------|

D|--9------------10---9---------------|

A|-----10--10------------12---10--10--|

E|------------------------------------|

©2015 by Fefe - Tron544

Sigueme en:

  • YouTube - White Circle
  • Facebook - White Circle
  • Instagram - White Circle
  • Twitter - White Circle
This site was designed with the
.com
website builder. Create your website today.
Start Now