LISTEN!!

K-ON!!

TABS ~ By Fefe (Tron544)

 

GUITAR 1:

 

Intro, Verse/Estrofa & Outro:

 

e|---------------------------------------|

B|---------------------------------------|

G|---------5------7--7--7------8------9--|

D|--7------5------7--7--7------8------9--|

A|--7------3------5--5--5------6------7--|

E|--5------------------------------------|

 

 

Pre-Chorus/Pre-Estribillo:

 

e|-----|---------------------------------------|

B|-----|---------------------------------------|

G|--7--|---------5------7--7--7------8------9--|

D|--7--|--7------5------7--7--7------8------9--|

A|--5--|--7------3------5--5--5------6------7--|

E|-----|--5------------------------------------|

 

e|-------------------|

B|-------------------|

G|--7------8------9--|

D|--7------8------9--|

A|--5------6------7--|

E|-------------------|

 

 

Chorus/Estribillo:

 

e|------------------------------------------------------|

B|------------------------------------------------------|

G|---------7-------------5-------------7------8------9--|

D|--7------7------5------5------3------7------8------9--|

A|--7------5------5------3------3------5------6------7--|

E|--5-------------3-------------1-----------------------|

 

e|------------------------------------------------------|

B|------------------------------------------------------|

G|---------7-------------5------4-------------7------9--|

D|--7------7------5------5------4------3------7------9--|

A|--7------5------5------3------2------3------5------7--|

E|--5-------------3--------------------1----------------|

 

e|---------|--------------------|----------------------------------|

B|---------|--------------------|----------------------------------|

G|--7b-----|--------------------|----------------2------5------14--|

D|------7--|--7--5--------------|--3------5------2------5----------|

A|---------|--------7--5--------|--3------5------0------3------12--|

E|---------|--------------8--5--|--1------3------------------------|

Listen!! - Tron544
00:00 / 00:00
DONATE%20BUTTON%20(EN)_edited.png

GUITAR 2:

 

Verse/Estrofa: x2

 

e|---------------------------------|------------------------------------|

B|---------------------------------|-----------------8------------------|

G|--7--9--9--9--9--9--9--7---------|--7--9--9--9--9-----9--9--7---------|

D|--------------------------10--7--|-----------------------------10--7--|

A|---------------------------------|------------------------------------|

E|---------------------------------|------------------------------------|

 

e|--------------------------------------------|

B|--------------------------------------------|

G|--7--9--9--9--9--9--9--7--------------------|

D|----------------------------------7--10--7--|

A|--------------------------10--10------------|

E|--------------------------------------------|

 

 

Pre-Chorus/Pre-Estribillo:

 

e|----------------------|------------------------------------------------|

B|----------------------|--------------------------------------8--10-----|

G|--10--10--10--10--10--|--10--10--10--10--10--10--10--10--10---------9--|

D|----------------------|------------------------------------------------|

A|----------------------|------------------------------------------------|

E|----------------------|------------------------------------------------|

 

e|----------------------|-----------------------------------------------------------|

B|----------------------|-----------------------------------------8--10--9--10--12--|

G|--10--10--10--10--10--|-10--10--10--10--10--10--10--10--10--10--------------------|

D|----------------------|-----------------------------------------------------------|

A|----------------------|-----------------------------------------------------------|

E|----------------------|-----------------------------------------------------------|

 

 

Chorus/Estribillo:

 

e|--8--7--8--7--8--7--8--|--7--8--7----------------|

B|-----------------------|-----------10--10--8--8--|

G|-----------------------|-------------------------|

D|-----------------------|-------------------------|

A|-----------------------|-------------------------|

E|-----------------------|-------------------------|

 

e|--------------------------|--------------------8--10--7---------7--|

B|--10--8--6--8--10--8--10--|--10--10--8--10--8------------8--10-----|

G|--------------------------|----------------------------------------|

D|--------------------------|----------------------------------------|

A|--------------------------|----------------------------------------|

E|--------------------------|----------------------------------------|

 

e|--8--7--8--7--8--7--8--|--7--8--7----------------|

B|-----------------------|-----------10--10--8--8--|

G|-----------------------|-------------------------|

D|-----------------------|-------------------------|

A|-----------------------|-------------------------|

E|-----------------------|-------------------------|

 

e|----------------------|----------7--8--7--|---------8--8--7--8--7------|

B|--6--8--10--6--8--10--|--10--10-----------|--8--10-----------------10--|

G|----------------------|-------------------|----------------------------|

D|----------------------|-------------------|----------------------------|

A|----------------------|-------------------|----------------------------|

E|----------------------|-------------------|----------------------------|

 

e|--7--8--7------|-----8--10--7----------7------|

B|-----------10--|--8------------10---------10--|

G|---------------|------------------------------|

D|---------------|------------------------------|

A|---------------|------------------------------|

E|---------------|------------------------------|

©2015 by Fefe - Tron544

Sigueme en:

  • YouTube - White Circle
  • Facebook - White Circle
  • Instagram - White Circle
  • Twitter - White Circle
This site was designed with the
.com
website builder. Create your website today.
Start Now