TABLATURAS ~ By Fefe - Tron544

 
 

Intro:

GUITAR (Rhythm):

e|----------------------------------|
B|------------------------------10--|
G|----------7--7----9--9----11--9---|
D|--9--9----7--7----9--9----11--7---|
A|--9--9----5--5----7--7----9-------|
E|--7--7----------------------------|

GUITAR (Lead):

e|--10------------------------------------------------|
B|------10--12------10------------------------10--12--|
G|--------------11------9---11--------9---11----------|
D|-------------------------------12-------------------|
A|----------------------------------------------------|
E|----------------------------------------------------|

BASS:

G|-----------------------------2--|
D|------------------2--2----2-----|
A|--2--2----5--5------------------|
E|--------------------------------|

GUITAR (Rhythm):

e|------------------------------|
B|------------------------------|
G|----------7--7----9--9----11--|
D|--9--9----7--7----9--9----11--|
A|--9--9----5--5----7--7----9---|
E|--7--7------------------------|

GUITAR (Lead):

e|--10-----------------------------------|
B|------10--12------10-------------------|
G|--------------11------9---11--------9--|
D|-------------------------------12------|
A|---------------------------------------|
E|---------------------------------------|

BASS:

G|-----------------------------|
D|------------------2--2----2--|
A|--2--2----5--5---------------|
E|-----------------------------|


GUITAR (Rhythm):

e|-----------------------------------------------------------------------------|
B|-----------------------------------------------------------------------------|
G|---------------------7--7--7--7--7--7---9--9--9--9--9--9---------------------|
D|--9--9--9--9--9--9---7--7--7--7--7--7---9--9--9--9--9--9---5--5--5--5--5--5--|
A|--9--9--9--9--9--9---5--5--5--5--5--5---7--7--7--7--7--7---5--5--5--5--5--5--|
E|--7--7--7--7--7--7-----------------------------------------3--3--3--3--3--3--|

GUITAR (Lead):

e|----------------------------------------------------------------------------------------------|
B|-------------------------------------------------------------------------10-------------------|
G|--------10--10--9--7--9---------10--10--9--7--9---------10--10--9--7--9-------9-b-r--7--9--7--|
D|--9--9-------------------9---9-------------------9---9----------------------------------------|
A|----------------------------------------------------------------------------------------------|
E|----------------------------------------------------------------------------------------------|

BASS:

G|-----------------------------------------------------------------------------|
D|----------------------------------------2--2--2--2--2--2---------------------|
A|--2--2--2--2--2--2---5--5--5--5--5--5----------------------------------------|
E|-----------------------------------------------------------3--3--3--3--3--3--|

GUITAR (Rhythm):

e|-----|
B|-----|
G|--4--|
D|--4--|
A|--2--|
E|-----|

GUITAR (Lead):

e|-------------------------------|
B|-------------------------------|
G|-------------------------------|
D|--7---9---7---9---7--7---9--7--|
A|-------------------------------|
E|-------------------------------|

BASS:

G|-----|
D|-----|
A|--2--|
E|-----|

 


Verse/Estrofa:

GUITAR (Rhythm):

e|------------------------------------------------------------------------------------|
B|------------------------------------------------------------------------------------|
G|--4---#--#--#--#--#---4--4--4---#--#--5--7---#--#--#--#--#---7--7--7---#--#---------|
D|--4---#--#--#--#--#---4--4--4---#--#--6--7---#--#--#--#--#---7--7--7---#--#---------|
A|--2---#--#--#--#--#---2--2--2---#--#--4--5---#--#--#--#--#---5--5--5---#--#---------|
E|------------------------------------------------------------------------------12-\--|

GUITAR (Vocals):

e|----------------------------------------------------|
B|----------------------------------------------------|
G|----------------------------------------------------|
D|--7--9--7--9--7--9--7--9----7--9--7--9--7--9--7--9--|
A|----------------------------------------------------|
E|----------------------------------------------------|

BASS:

G|---------------------------------------------------|
D|---------------------------------------------------|
A|--2-------2--2--2-------4--5------5--5--5----------|
E|---------------------------------------------12-\--|

GUITAR (Rhythm):

e|---------------------------------------------------------------------|
B|---------------------------------------------------------------------|
G|---------------------------------------------------------------------|
D|--2--2--2---2--2--2---2--2--2--2---4--5--5--5--5--5---7--7--7--7--7--|
A|--2--2--2---2--2--2---2--2--2--2---5--5--5--5--5--5---7--7--7--7--7--|
E|--0--0--0---0--0--0---0--0--0--0---2--3--3--3--3--3---5--5--5--5--5--|

GUITAR (Vocals):

e|----------------------------------|
B|-------------------7--------------|
G|--7---6----------------9---6------|
D|----------7--------------------7--|
A|--------------9-------------------|
E|----------------------------------|

BASS:

G|----------------------------------------------------------------------|
D|----------------------------------------------------------------------|
A|----------------------------------------------------------------------|
E|--0--0--0---0--0--0---0--0--0--0---2---3--3--3--3--3---5--5--5--5--5--|

GUITAR (Rhythm):

e|---------------------------------------------------------------------------------------------|
B|---------------------------------------------------------------------------------------------|
G|--4---x--x--4---x--4---x--4---x--4--4--4---6--7---x--x--7---x--7---x--7---x--7--7--7---------|
D|--4---x--x--4---x--4---x--4---x--4--4--4---7--7---x--x--7---x--7---x--7---x--7--7--7---------|
A|--2---x--x--2---x--2---x--2---x--2--2--2---4--5---x--x--5---x--5---x--5---x--5--5--5---------|
E|---------------------------------------------------------------------------------------12-\--|

GUITAR (Vocals):

e|----------------------------------------------------|
B|----------------------------------------------------|
G|----------------------------------------------------|
D|--7--9--7--9--7--9--7--9----7--9--7--9--7--9--7--9--|
A|----------------------------------------------------|
E|----------------------------------------------------|

GUITAR (Harmony):

e|----------------------------------------------------|
B|----------------------------------------------------|
G|--6--7--6--7--6--7--6--7----6--7--6--7--6--7--6--7--|
D|----------------------------------------------------|
A|----------------------------------------------------|
E|----------------------------------------------------|

BASS:

G|--------------------------------------------------------------------|
D|--------------------------------------------------------------------|
A|--2---2--2---2--2---2--2--2---4--5---5--5---5--5---5--5--5----------|
E|--------------------------------------------------------------12-\--|

GUITAR (Rhythm):

e|---------------------------------------------------------------------|
B|---------------------------------------------------------------------|
G|---------------------------------------------------------------------|
D|--2--2--2---2--2--2---2--2--2--2---4--5--5--5--5--5---7--7--7--7--7--|
A|--2--2--2---2--2--2---2--2--2--2---5--5--5--5--5--5---7--7--7--7--7--|
E|--0--0--0---0--0--0---0--0--0--0---2--3--3--3--3--3---5--5--5--5--5--|

GUITAR (Vocals):

e|----------------------------------|
B|-------------------7--------------|
G|--7---6----------------9---6------|
D|----------7--------------------7--|
A|--------------9-------------------|
E|----------------------------------|

GUITAR (Harmony):

e|-----------------------------------|
B|--7----------------10---8----------|
G|------9---6-----------------9---6--|
D|--------------7--------------------|
A|-----------------------------------|
E|-----------------------------------|

BASS:

G|----------------------------------------------------------------------|
D|----------------------------------------------------------------------|
A|----------------------------------------------------------------------|
E|--0--0--0---0--0--0---0--0--0--0---2---3--3--3--3--3---5--5--5--5--5--|


Pre-Chorus/Pre-Estribillo:

GUITAR (Rhythm):

e|----------------------------------------|
B|----------------------------------------|
G|------------------(7)--7----------------|
D|--(5)--5----------(7)--7----------------|
A|--(5)--5----------(5)--5----------------|
E|--(3)--3--------------------------12-\--|

GUITAR (Vocals):

e|------------------------------------------------|
B|------------------------------------------------|
G|---------6-h-7--6-/-7-------------6-h-7--6-/-7--|
D|--9--9---------------------7--7-----------------|
A|------------------------------------------------|
E|------------------------------------------------|

GUITAR (Harmony):

e|------------------------------------------------|
B|---------5-h-7--5-/-7-------------5-h-7--5-/-7--|
G|--7--7---------------------7--7-----------------|
D|------------------------------------------------|
A|------------------------------------------------|
E|------------------------------------------------|

BASS:

G|------------------------------------|
D|------------------------------------|
A|----------------5--5----------------|
E|--3--3------------------------12-\--|

GUITAR (Rhythm):

e|-----------------------------------------------------------------------------------------------------|
B|-----------------------------------------------------------------------------------------------------|
G|--2--x--x--2--x--x--2--x---2--x--x--2--x--x--2--x---4--x--x--4--x--x--4--x---4--x--x--4--x--x--4--x--|
D|--2--x--x--2--x--x--2--x---2--x--x--2--x--x--2--x---4--x--x--4--x--x--4--x---4--x--x--4--x--x--4--x--|
A|--0--x--x--0--x--x--0--x---0--x--x--0--x--x--0--x---2--x--x--2--x--x--2--x---2--x--x--2--x--x--2--x--|
E|-----------------------------------------------------------------------------------------------------|

GUITAR (Lead):

e|-------------------------------------------------------|
B|-------------------------------------------------------|
G|---4--4--4--6--6--6--7--7---11--11--11--9--9--9--7--7--|
D|-------------------------------------------------------|
A|---2--2--2--4--4--4--5--5---9---9---9---7--7--7--5--5--|
E|-------------------------------------------------------|

GUITAR (Vocals):

e|-----------------------------------------|
B|-----------------------------------------|
G|--6-----6-------6-----6-------7---6------|
D|-----9-----9-------9-----9------------9--|
A|-----------------------------------------|
E|-----------------------------------------|

GUITAR (Harmony):

e|-------------|
B|--7----------|
G|------9---7--|
D|-------------|
A|-------------|
E|-------------|

BASS:

G|--------------------------------------------------------------------------------------------------------|
D|-----------------------------------------------------------------------------4--4--4--2--2--2-----------|
A|--0--0--0--0--0--0--0--0---0--0--0--0--0--0--0--0---2--2--2--4--4--4--5--5---------------------5--5--5--|
E|--------------------------------------------------------------------------------------------------------|

GUITAR (Rhythm):

e|----------------------------------------|
B|----------------------------------------|
G|------------------(7)--7----------------|
D|--(5)--5----------(7)--7----------------|
A|--(5)--5----------(5)--5----------------|
E|--(3)--3--------------------------12-\--|

GUITAR (Vocals):

e|------------------------------------------------|
B|------------------------------------------------|
G|---------6-h-7--6-/-7-------------6-h-7--6-/-7--|
D|--9--9---------------------7--7-----------------|
A|------------------------------------------------|
E|------------------------------------------------|

GUITAR (Harmony):

e|------------------------------------------------|
B|---------5-h-7--5-/-7-------------5-h-7--5-/-7--|
G|--7--7---------------------7--7-----------------|
D|------------------------------------------------|
A|------------------------------------------------|
E|------------------------------------------------|

BASS:

G|------------------------------------|
D|------------------------------------|
A|----------------5--5----------------|
E|--3--3------------------------12-\--|

GUITAR (Rhythm):

e|--------------------------------------------------------------------------------------------------------|
B|--------------------------------------------------------------------------------------------------------|
G|-------------------------------------11--x--x---10--x--x---9--x--x---7--x--x---9--7---11---11---11--11--|
D|--2--2---2---#--#--2--2---2---#--#---11--x--x---10--x--x---9--x--x---7--x--x---9--7---11---11---11--11--|
A|--2--2---2---#--#--2--2---2---#--#---9---x--x---8---x--x---7--x--x---5--x--x---7--5---9----9----9---9---|
E|--0--0---0---#--#--0--0---0---#--#----------------------------------------------------------------------|

GUITAR (Vocals):

e|-----------------------------------|
B|----------------------------5-/-7--|
G|--7----------7----------7----------|
D|-----9--9-------9--9---------------|
A|-----------------------------------|
E|-----------------------------------|

GUITAR (Harmony):

e|-----|
B|-----|
G|--7--|
D|-----|
A|-----|
E|-----|

BASS:

G|-------------------------------------------------------------------------------------------------|
D|------------------------------4--4--4---3--3--3---2--2--2---0--0--0---2--2--0--0---4---4---4--4--|
A|-------------------------------------------------------------------------------------------------|
E|--0--0---0------0--0---0-------------------------------------------------------------------------|


Chorus/Estribillo:

GUITAR (Rhythm):

e|-----|-----------------------------------------------------------------------------|
B|-----|-----------------------------------------------------------------------------|
G|--2--|--4--4--4--4--4--4---4--4--4--4--4--4---7--7--7--7--7--7---7--7--7--7--7--7--|
D|--2--|--4--4--4--4--4--4---4--4--4--4--4--4---7--7--7--7--7--7---7--7--7--7--7--7--|
A|--0--|--2--2--2--2--2--2---2--2--2--2--2--2---5--5--5--5--5--5---5--5--5--5--5--5--|
E|-----|-----------------------------------------------------------------------------|

GUITAR (Vocals):

e|-----------|----------------------------------------------------------------|
B|--7--7--7--|--7------------7-/-9----7--7--7--7------------7-/-9----7--------|
G|-----------|---------7--9---------------------------7--9--------------9--7--|
D|-----------|------9------------------------------9--------------------------|
A|-----------|----------------------------------------------------------------|
E|-----------|----------------------------------------------------------------|

GUITAR (Harmony):

e|--------------|------------------------------------------------------------|
B|--10--10--10--|--10------7--8--8-/-10----10--10--10--10------7--8--8-/-10--|
G|--------------|-------7-----------------------------------7----------------|
D|--------------|------------------------------------------------------------|
A|--------------|------------------------------------------------------------|
E|--------------|------------------------------------------------------------|

BASS:

G|-----|-------------------------------------------------------------------------------------|
D|-----|-------------------------------------------------------------------------------------|
A|--0--|--2---2--2--2--2--2--2---2--2--2--2--2--2---5---5--5--5--5--5--5---5--5--5--5--5--5--|
E|-----|-------------------------------------------------------------------------------------|

GUITAR (Rhythm):

e|---------------------------------------------------------------------|
B|---------------------------------------------------------------------|
G|---------------------------------------------------------------------|
D|--2--2---2---#--#---2--2---2---#--#---5--5--5--5--5---7--7--7--7--7--|
A|--2--2---2---#--#---2--2---2---#--#---5--5--5--5--5---7--7--7--7--7--|
E|--0--0---0---#--#---0--0---0---#--#---3--3--3--3--3---5--5--5--5--5--|

GUITAR (Vocals):

e|----------------------------------------------------------------|
B|-------7-------------7--------------------5-/-7--------7--7--7--|
G|--9-------9--7--9-------9--7------7---9-----------9-------------|
D|------------------------------9---------------------------------|
A|----------------------------------------------------------------|
E|----------------------------------------------------------------|

GUITAR (Harmony):

e|----------------------------------------|
B|------7---8---8-/-10---8----10--10--10--|
G|--7-------------------------------------|
D|----------------------------------------|
A|----------------------------------------|
E|----------------------------------------|

BASS:

G|-------------------------------------------------------------------------------|
D|-------------------------------------------------------------------------------|
A|------------------------------------2--2--5--5--2--2---------4--4--7--7--4--4--|
E|--0--0---0------0--0---0------3--3---------------------5--5--------------------|

GUITAR (Rhythm):

e|------------------------------------------------------------------------------|
B|------------------------------------------------------------------------------|
G|--4--4--4--4--4--4---4--4--4--4--4--4-----------------------------------------|
D|--4--4--4--4--4--4---4--4--4--4--4--4---5--5--5--5--5--5---5--5--#---4--4--#--|
A|--2--2--2--2--2--2---2--2--2--2--2--2---5--5--5--5--5--5---5--5--#---5--5--#--|
E|----------------------------------------3--3--3--3--3--3---3--3--#---2--2--#--|

GUITAR (Vocals):

e|---------------------------------------------------------------------|
B|--7------------7-/-9----7--7--7--7--7--------------7-/-9----7--------|
G|---------7--9--------------------------------7--9--------------9--7--|
D|------9--------------------------------9--9--------------------------|
A|---------------------------------------------------------------------|
E|---------------------------------------------------------------------|

GUITAR (Harmony):

e|------------------------------------------------------------------|
B|--10------7--8--8-/-10----10--10--10--10--10--------7--8--8-/-10--|
G|-------7--------------------------------------7--7----------------|
D|------------------------------------------------------------------|
A|------------------------------------------------------------------|
E|------------------------------------------------------------------|

BASS:

G|-----------------------------------------------------------------------------------------|
D|-----------------------------------------------------------------------------------------|
A|--2---2--2--2--2--2--2---2--2--2--2--2--2------------------------------------------------|
E|--------------------------------------------3---3--3--3--3--3--3---3--3--3---2--2--2--2--|

GUITAR (Rhythm):

e|---------------------------------------------------------------------|
B|---------------------------------------------------------------------|
G|---------------------------------------------------------------------|
D|--2--2---2---#--#---2--2---2---#--#---5--5--5--5--5---7--7--7--7--7--|
A|--2--2---2---#--#---2--2---2---#--#---5--5--5--5--5---7--7--7--7--7--|
E|--0--0---0---#--#---0--0---0---#--#---3--3--3--3--3---5--5--5--5--5--|

GUITAR (Vocals):

e|----------------------------------------------------------------|
B|-------7-------------7--------------------5-/-7-----------------|
G|--9-------9--7--9-------9--7------7---9-----------9----9--9--9--|
D|------------------------------9---------------------------------|
A|----------------------------------------------------------------|
E|----------------------------------------------------------------|

GUITAR (Harmony):

e|-------------------------------------|
B|------7---8---8-/-10---8----8--8--8--|
G|--7----------------------------------|
D|-------------------------------------|
A|-------------------------------------|
E|-------------------------------------|

BASS:

G|-------------------------------------------------------------------------------|
D|-------------------------------------------------------------------------------|
A|------------------------------------2--2--5--5--2--2---------4--4--7--7--4--4--|
E|--0--0---0------0--0---0------3--3---------------------5--5--------------------|

GUITAR (Rhythm):

e|---------------------------------------------------------------------------------|
B|---------------------------------------------------------------------------------|
G|-----------------------------------------------------------9-/-10--10---9--7-----|
D|--5--x--x--5--x--x--5--x---7--x--x--7--x--x--7--x---9-------------------------9--|
A|--5--x--x--5--x--x--5--x---7--x--x--7--x--x--7--x---9------7-/-8---8----7--5-----|
E|--3--x--x--3--x--x--3--x---5--x--x--5--x--x--5--x---7-------------------------7--|

GUITAR (Vocals):

e|--------------------------------------------------------------------|
B|--------------------------------------------------------------------|
G|--9-/-10---9---7----------------------7------9-/-10---10---9--7-----|
D|------------------9---7-------9---9------9-----------------------9--|
A|--------------------------9-----------------------------------------|
E|--------------------------------------------------------------------|

GUITAR (Harmony):

e|-------------------------|
B|--8-/-10---8---7---------|
G|------------------7---6--|
D|-------------------------|
A|-------------------------|
E|-------------------------|

BASS:

G|-------------------------------------------------------------------------------|
D|-----------------------------------------------------------2-/-3--3---2--0-----|
A|----------------------------------------------------2-----------------------2--|
E|--3--3--3--3--3--3--3--3---5--5--5--5--5--5--5--5------------------------------|

 

~ LIMIT BREAK X SURVIVOR ~

Limit Break x Survivor - Tron544
00:00 / 00:00

©2019 by Fefe - Tron544

Sigueme en:

  • YouTube - White Circle
  • Facebook - White Circle
  • Instagram - White Circle
  • Twitter - White Circle
This site was designed with the
.com
website builder. Create your website today.
Start Now