LILIUM

ELFEN LIED

Lilium - Tron544
00:00 / 00:00
DONATE%20BUTTON%20(EN)_edited.png

TABS ~ By Fefe (Tron544)

 

Verse/Estrofa:

 

e|-----9----------------------9-----------7---------|

B|--7-----9----10--10------7-----9----10-----10--7--|

G|--------------------------------------------------|

D|--------------------------------------------------|

A|--------------------------------------------------|

E|--------------------------------------------------|

 

e|-------------------------------------------7---------------|

B|--9-------------7--------------7----9--10-----10----10--9--|

G|-----9--7--9-------7--6--7--9------------------------------|

D|-----------------------------------------------------------|

A|-----------------------------------------------------------|

E|-----------------------------------------------------------|

 

e|-----9----------------------9-----------7---------|

B|--7-----9----10--10------7-----9----10-----10--7--|

G|--------------------------------------------------|

D|--------------------------------------------------|

A|--------------------------------------------------|

E|--------------------------------------------------|

 

e|----------------------------7------------------------------------9--|

B|--9-------------7--------------10--9--7------------------11--12-----|

G|-----9--7--9-------7--6--7---------------10--8--10--11--------------|

D|--------------------------------------------------------------------|

A|--------------------------------------------------------------------|

E|--------------------------------------------------------------------|

Chorus/Estribillo:

 

e|--10---------10--9--12------9--8--------------------------|

B|------10--9-------------10--------10--9------10----12--9--|

G|-----------------------------------------11---------------|

D|----------------------------------------------------------|

A|----------------------------------------------------------|

E|----------------------------------------------------------|

 

 

Outro:

 

e|-----9----------------------9-----------7---------|

B|--7-----9----10--10------7-----9----10-----10--7--|

G|--------------------------------------------------|

D|--------------------------------------------------|

A|--------------------------------------------------|

E|--------------------------------------------------|

 

e|----------------------------7---------------------------|

B|--9-------------7--------------10--9--7-----------------|

G|-----9--7--9-------7--6--7---------------10--8--10--11--|

D|--------------------------------------------------------|

A|--------------------------------------------------------|

E|--------------------------------------------------------|

©2015 by Fefe - Tron544

Sigueme en:

  • YouTube - White Circle
  • Facebook - White Circle
  • Instagram - White Circle
  • Twitter - White Circle
This site was designed with the
.com
website builder. Create your website today.
Start Now