LIFE WILL CHANGE

PERSONA 5

TABS ~ By Fefe (Tron544)

 

Intro: x2

GUITAR (Rhythm):

e|---------------------------------------------------------------|
B|--6--6-6-#-#-6--6-6-#-#-6--6-6-#-#-6--6-6-#-#-6-6-#-#-7-7-#-#--|
G|---------#-#--------#-#--------#-#--------#-#-----#-#-----#-#--|
D|--3--3-3-#-#-3--3-3-#-#-3--3-3-#-#-3--3-3-#-#-3-3-#-#-4-4-#-#--|
A|---------------------------------------------------------------|
E|---------------------------------------------------------------|

BASS:

Gb|-----------------------------------------|
Db|-----------------------------------------|
Ab|-----------------------------------------|
Eb|---2-5-4-3-2-1-0-0--0-0-2-2--0-0-2-2--3--|

GUITAR (Rhythm):

e|---------------------------------------------------------------|
B|--6--6-6-#-#-6--6-6-#-#-6--6-6-#-#-6--6-6-#-#-6-6-#-#-7-7-#-#--|
G|---------#-#--------#-#--------#-#--------#-#-----#-#-----#-#--|
D|--3--3-3-#-#-3--3-3-#-#-3--3-3-#-#-3--3-3-#-#-3-3-#-#-4-4-#-#--|
A|---------------------------------------------------------------|
E|---------------------------------------------------------------|

BASS:

Gb|--------------------------------------------|
Db|--------------------------------------------|
Ab|-------------------------4-2--0-2-0---------|
Eb|--2--5-4-3-2-1--0-0-2-2--------------2-0-0--|

GUITAR (Rhythm):

e|---------------------------------------------------------------|
B|--6--6-6-#-#-6--6-6-#-#-6--6-6-#-#-6--6-6-#-#-6-6-#-#-7-7-#-#--|
G|---------#-#--------#-#--------#-#--------#-#-----#-#-----#-#--|
D|--3--3-3-#-#-3--3-3-#-#-3--3-3-#-#-3--3-3-#-#-3-3-#-#-4-4-#-#--|
A|---------------------------------------------------------------|
E|---------------------------------------------------------------|

BASS:

Gb|-----------------------------------------|
Db|-----------------------------------------|
Ab|-----------------------------------------|
Eb|---2-5-4-3-2-1-0-0--0-0-2-2--0-0-2-2--3--|

GUITAR (Rhythm):

e|---------------------------------------------------------------|
B|--6--6-6-#-#-6--6-6-#-#-6--6-6-#-#-6--6-6-#-#-6-6-#-#-7-7-#-#--|
G|---------#-#--------#-#--------#-#--------#-#-----#-#-----#-#--|
D|--3--3-3-#-#-3--3-3-#-#-3--3-3-#-#-3--3-3-#-#-3-3-#-#-4-4-#-#--|
A|---------------------------------------------------------------|
E|---------------------------------------------------------------|

BASS:

Gb|-----------------------------------|
Db|-----------------------------------|
Ab|-----------------------------------|
Eb|--2--5-4-3-2-1--0-0-2-/--\---------|

 


Part A/Parte A:

GUITAR (Vocals):

e|------------|------------------------------------------------------------------|
B|------------|---------------------------9--11/12\11---11-9------------------9--|
G|------------|------------------8--8h10----------------------10------10-8-10----|
D|--6-6-8-----|-----6-6-8--8/10--------------------------------------------------|
A|---------8--|------------------------------------------------------------------|
E|------------|------------------------------------------------------------------|

GUITAR (Rhythm):

e|----------------------------------------------------------|
B|----------------------------------------------------------|
G|------8-------------8------------7------------8-----------|
D|---10----10------10----10------8----8------10----10-------|
A|----------------------------------------------------------|
E|----------------------------------------------------------|

BASS:

Gb|----------------------------------------------------------------------------------------------------------|
Db|----------------------------------------------------------------------------------------------------------|
Ab|----------------------------0--0--0--0-0-0-0-0--0--0--2--2--2--2-2-2-2-2--2--2--4--4--4--4-4-4-4-4--4--4--|
Eb|--2--2--2--2-2-2-2-2--2--2--------------------------------------------------------------------------------|

GUITAR (Vocals):

e|----------------------------------11-----------------------|
B|--9----------11--11----------11b------11r------------------|
G|-----10-8-10---------10-8-10-------------------------------|
D|-----------------------------------------------------------|
A|-----------------------------------------------------------|
E|-----------------------------------------------------------|

GUITAR (Rhythm):

e|---------------------------------------------------------|
B|---------------------------------------------------------|
G|------8-------------8------------7------------8--9-------|
D|---10----10------10----10------8----8------10------------|
A|---------------------------------------------------------|
E|---------------------------------------------------------|

BASS:

Gb|----------------------------------------------------------------------------------------------------------|
Db|----------------------------------------------------------------------------------------------------------|
Ab|----------------------------0--0--0--0-0-0-0-0--0--0--2--2--2--2-2-2-2-2--2--2---------------4-4-4--4--4--|
Eb|--2--2--2--2-2-2-2-2--2--2------------------------------------------------------4--4--4--4-4--------------|

 


Part B/Parte B:

GUITAR (Vocals):

e|-------|-----------------------------------------------------|
B|--11b--|---9-11----9-----------11b--9-11----9-----------11b--|
G|-------|--------10-----------------------10------------------|
D|-------|-----------------------------------------------------|
A|-------|-----------------------------------------------------|
E|-------|-----------------------------------------------------|

GUITAR (Rhythm):

e|-------------------------------------------------------------|
B|-------------------------------------------------------------|
G|-------------------------------------------------------------|
D|--3--x-x-x-3-x-3--3-x-3--3-3-3-6--x-x-x-6-x-6--6-x-6--6-6-6--|
A|--3--x-x-x-3-x-3--3-x-3--3-3-3-6--x-x-x-6-x-6--6-x-6--6-6-6--|
E|--1--x-x-x-1-x-1--1-x-1--1-1-1-4--x-x-x-4-x-4--4-x-4--4-4-4--|

BASS:

Gb|----------------------------------------------------------------------------------------------------------|
Db|----------------------------------------------------------------------------------------------------------|
Ab|------------------------------------------------------0--0--0--0-0-0-0-0--0--0--0--0--0--0-0-0-0-0--0--0--|
Eb|--2--2--2--2-2-2-2-2--2--2--2--2--2--2-2-2-2-2--2--2------------------------------------------------------|

GUITAR (Vocals):

e|-------------------------------------------------|
B|---9-11----9---------9b-----8---------------11b--|
G|--------10---------------------------------------|
D|-------------------------------------------------|
A|-------------------------------------------------|
E|-------------------------------------------------|

GUITAR (Rhythm):

e|-------------------------------------------------------------|
B|-------------------------------------------------------------|
G|--3--x-x-x-3-x-3--3-x-3--3-3-3--------------5--5-x-5--5-5-5--|
D|--3--x-x-x-3-x-3--3-x-3--3-3-3-5--x-x-x-5-x-5--5-x-5--5-5-5--|
A|--1--x-x-x-1-x-1--1-x-1--1-1-1-4--x-x-x-4-x-3--3-x-3--3-3-3--|
E|-------------------------------3--x-x-x-3-x------------------|

BASS:

Gb|----------------------------------------------------------------------------------------------------------|
Db|----------------------------------------------------------------------------------------------------------|
Ab|--2--2--2--2-2-2-2-2--2--2--2--2--2--2-2-2-2-2--2--2----------------------------4--4--4--4-4-4-4-4--4--4--|
Eb|------------------------------------------------------4--4--4--4-4-4-4-4--4--4----------------------------|

GUITAR (Vocals):

e|----------------------------11------------------------|
B|---9-11----9-----------11b-----11----9-----------11b--|
G|--------10------------------------10------------------|
D|------------------------------------------------------|
A|------------------------------------------------------|
E|------------------------------------------------------|

GUITAR (Rhythm):

e|-------------------------------------------------------------|
B|-------------------------------------------------------------|
G|-------------------------------------------------------------|
D|--3--x-x-x-3-x-3--3-x-3--3-3-3-6--x-x-x-6-x-6--6-x-6--6-6-6--|
A|--3--x-x-x-3-x-3--3-x-3--3-3-3-6--x-x-x-6-x-6--6-x-6--6-6-6--|
E|--1--x-x-x-1-x-1--1-x-1--1-1-1-4--x-x-x-4-x-4--4-x-4--4-4-4--|

BASS:

Gb|----------------------------------------------------------------------------------------------------------|
Db|----------------------------------------------------------------------------------------------------------|
Ab|------------------------------------------------------0--0--0--0-0-0-0-0--0--0--0--0--0--0-0-0-0-0--0--0--|
Eb|--2--2--2--2-2-2-2-2--2--2--2--2--2--2-2-2-2-2--2--2------------------------------------------------------|

GUITAR (Vocals):

e|-----------------------------------------------|
B|---9-11----9---------9b-----8------------------|
G|--------10-------------------------------------|
D|-----------------------------------------------|
A|-----------------------------------------------|
E|-----------------------------------------------|

GUITAR (Rhythm):

e|-------------------------------------------------------------|
B|-------------------------------------------------------------|
G|--3--x-x-x-3-x-3--3-x-3--3-3-3-5--x-x-x-5-x-5--5-x-5--5-5-5--|
D|--3--x-x-x-3-x-3--3-x-3--3-3-3-5--x-x-x-5-x-5--5-x-5--5-5-5--|
A|--1--x-x-x-1-x-1--1-x-1--1-1-1-3--x-x-x-3-x-3--3-x-3--3-3-3--|
E|-------------------------------------------------------------|

BASS:

Gb|----------------------------------------------------------------------------------------------------------|
Db|----------------------------------------------------------------------------------------------------------|
Ab|--2--2--2--2-2-2-2-2--2--2--2--2--2--2-2-2-2-2--2--2--4--4--4--4-4-4-4-4--4--4--4--4--4--4-4-4-4-4--4--4--|
Eb|----------------------------------------------------------------------------------------------------------|

Life Will Change (Instrumental) - Tron544
00:00 / 00:00
DONATE%20BUTTON%20(EN)_edited.png

Interlude/Interludio:

GUITAR (Rhythm):

   /~~~~~~~~~~~~~~~~~~( REPEAT x3 / REPITE x3)~~~~~~~~~~~~~~~~~~\
e|---------------------------------------------------------------|
B|--6--6-6-#-#-6--6-6-#-#-6--6-6-#-#-6--6-6-#-#-6-6-#-#-6-6-#-#--|
G|---------#-#--------#-#--------#-#--------#-#-----#-#-----#-#--|
D|--3--3-3-#-#-3--3-3-#-#-3--3-3-#-#-3--3-3-#-#-3-3-#-#-3-3-#-#--|
A|---------------------------------------------------------------|
E|---------------------------------------------------------------|

BASS:

   /~~~~~~( REPEAT x3 / REPITE x3)~~~~~\
Gb|-------------------------------------|
Db|-------------------------------------|
Ab|--9-9-9-8-8-7-7-6-5-4-4-3-3-2-2-0----|
Eb|----------------------------------2--|

GUITAR (Rhythm):

   /~~~~~~~~~~~~~( REPEAT x3 / REPITE x3)~~~~~~~~~~~~~\
e|-----------------------------------------------------|
B|--6--6-6-#-#-6--6-6-#-#-6--6-6-#-#-6--6-6------------|
G|---------#-#--------#-#--------#-#-------------------|
D|--3--3-3-#-#-3--3-3-#-#-3--3-3-#-#-3--3-3------------|
A|-----------------------------------------------------|
E|-----------------------------------------------------|

BASS:

   /~~~~~~( REPEAT x3 / REPITE x3)~~~~~\
Gb|-------------------------------------|
Db|-------------------------------------|
Ab|--9-9-9-8-8-7-7-6-5-4-4-3-3-2-2-0----|
Eb|----------------------------------2--|

 


Part C/Parte C:

GUITAR (Vocals):

e|--------------------|---------------------------------------------------------|
B|--11--9--11--9--11--|------9-------9--9--9--9--11-9-----------9--9--9--9--11--|
G|--------------------|--10----------------------------10-----------------------|
D|--------------------|---------------------------------------------------------|
A|--------------------|---------------------------------------------------------|
E|--------------------|---------------------------------------------------------|

GUITAR (Rhythm):

e|-----------------------------------------------------------------------------------------------------------|
B|-----------------------------------------------------------------------------------------------------------|
G|-----------------------------------------------------------------------------------------------------------|
D|--3--3--3--3-3-3-3-3--3---3--3--3--3--3-3-3-3-3--3--3--6--6--6--6-6-6-6-6--6--6--6--6--6--6-6-6-6-6--6--6--|
A|--3--3--3--3-3-3-3-3--3---3--3--3--3--3-3-3-3-3--3--3--6--6--6--6-6-6-6-6--6--6--6--6--6--6-6-6-6-6--6--6--|
E|--1--1--1--1-1-1-1-1--1---1--1--1--1--1-1-1-1-1--1--1--4--4--4--4-4-4-4-4--4--4--4--4--4--4-4-4-4-4--4--4--|

BASS:

Gb|----------------------------------------------------------------------------------------------------------|
Db|----------------------------------------------------------------------------------------------------------|
Ab|------------------------------------------------------0--0--0--0-0-0-0-0--0--0--0--0--0--0-0-0-0-0--0--0--|
Eb|--2--2--2--2-2-2-2-2--2--2--2--2--2--2-2-2-2-2--2--2------------------------------------------------------|

GUITAR (Vocals):

e|-------------------------------------------------------------|
B|-----9----------11b--11-9--11--------------11--9--11--9--11--|
G|--10------10-10----------------10----------------------------|
D|-------------------------------------------------------------|
A|-------------------------------------------------------------|
E|-------------------------------------------------------------|

GUITAR (Rhythm):

e|----------------------------------------------------------------------------------------------------------|
B|----------------------------------------------------------------------------------------------------------|
G|--3--3--3--3-3-3-3-3--3---3-3-3--3--3--3-3-3-3-3--3--3-3--------------------------------5---5-5--5--5--5--|
D|--3--3--3--3-3-3-3-3--3---3-3-3--3--3--3-3-3-3-3--3--3-3-3--3----4---4-4--4--4--5--5----5---5-5--5--5--5--|
A|--1--1--1--1-1-1-1-1--1---1-1-1--1--1--1-1-1-1-1--1--1-1-3--3----3---3-3--3--3--5--5----3---3-3--3--3--3--|
E|---------------------------------------------------------1--1----2---2-2--2--2--3--3----------------------|

BASS:

Gb|---------------------------------------------------------------------------------------------------------|
Db|---------------------------------------------------------------------------------------------------------|
Ab|--2--2--2--2-2-2-2-2--2--2-2-2--2--2--2-2-2-2-2--2--2-2--------------------------------4---4-4--4--4--4--|
Eb|--------------------------------------------------------2--2----3---3-3--3--3--4--4----------------------|

GUITAR (Vocals):

e|---------------------------------------------------------|
B|------9-------9--9--9--9--11-9-----------9--9--9--9--11--|
G|--10----------------------------10-----------------------|
D|---------------------------------------------------------|
A|---------------------------------------------------------|
E|---------------------------------------------------------|

GUITAR (Rhythm):

e|-----------------------------------------------------------------------------------------------------------|
B|-----------------------------------------------------------------------------------------------------------|
G|-----------------------------------------------------------------------------------------------------------|
D|--3--3--3--3-3-3-3-3--3---3--3--3--3--3-3-3-3-3--3--3--6--6--6--6-6-6-6-6--6--6--6--6--6--6-6-6-6-6--6--6--|
A|--3--3--3--3-3-3-3-3--3---3--3--3--3--3-3-3-3-3--3--3--6--6--6--6-6-6-6-6--6--6--6--6--6--6-6-6-6-6--6--6--|
E|--1--1--1--1-1-1-1-1--1---1--1--1--1--1-1-1-1-1--1--1--4--4--4--4-4-4-4-4--4--4--4--4--4--4-4-4-4-4--4--4--|

BASS:

Gb|----------------------------------------------------------------------------------------------------------|
Db|----------------------------------------------------------------------------------------------------------|
Ab|------------------------------------------------------0--0--0--0-0-0-0-0--0--0--0--0--0--0-0-0-0-0--0--0--|
Eb|--2--2--2--2-2-2-2-2--2--2--2--2--2--2-2-2-2-2--2---2-----------------------------------------------------|

GUITAR (Vocals):

e|---------------------11--------------------------|
B|-----9----------11b-----11r-11--9----------------|
G|--10------10-10--------------------10------------|
D|-------------------------------------------------|
A|-------------------------------------------------|
E|-------------------------------------------------|

GUITAR (Rhythm):

e|-----------------------------------------------------------------------------------------------------------|
B|-----------------------------------------------------------------------------------------------------------|
G|--3--3--3--3-3-3-3-3--3---3--3--3--3--3-3-3-3-3--3--3--5--5--5--5-5-5-5-5--5--5--5--5--5--5-5-5-5-5--5--5--|
D|--3--3--3--3-3-3-3-3--3---3--3--3--3--3-3-3-3-3--3--3--5--5--5--5-5-5-5-5--5--5--5--5--5--5-5-5-5-5--5--5--|
A|--1--1--1--1-1-1-1-1--1---1--1--1--1--1-1-1-1-1--1--1--3--3--3--3-3-3-3-3--3--3--3--3--3--3-3-3-3-3--3--3--|
E|-----------------------------------------------------------------------------------------------------------|

 

BASS:

Gb|----------------------------------------------------------------------------------------------------------|
Db|----------------------------------------------------------------------------------------------------------|
Ab|--2--2--2--2-2-2-2-2--2--2--2--2--2--2-2-2-2-2--2--2------------------------------------------------------|
Eb|------------------------------------------------------2--2--2--2-2-2-2-2--2--2--2--2--2--2-2-2-2-2--2--2--|

©2015 by Fefe - Tron544

Sigueme en:

  • YouTube - White Circle
  • Facebook - White Circle
  • Instagram - White Circle
  • Twitter - White Circle
This site was designed with the
.com
website builder. Create your website today.
Start Now