~ LIFE ~

TABLATURAS ~ By Fefe - Tron544

 

Intro:

 

GUITAR 1:

 

e|--0--------0---2--------2--|

B|--0-----0------2-----2-----|

G|--1--1---------3--3--------|

D|--2------------4-----------|

A|--2------------4-----------|

E|--0------------2-----------|

 

GUITAR 2:

 

e|------------------------------------------------------------|

B|--11--12--12--12--12--12--11--------------------------------|

G|------------------------------13--11-/-13--11--11-------11--|

D|----------------------------------------------------13------|

A|------------------------------------------------------------|

E|------------------------------------------------------------|

 

GUITAR 1:

 

e|--6--------6---4--------4--|

B|--7-----7------4-----4-----|

G|--8------------4-----------|

D|--8--8---------6--6--------|

A|--6------------6-----------|

E|---------------4-----------|

 

GUITAR 2:

 

e|-------------------------------------------------|

B|-------------------12-/-14--12--11--12-------11--|

G|--11-----------11------------------------13------|

D|-------13--13------------------------------------|

A|-------------------------------------------------|

E|-------------------------------------------------|

 

GUITAR 1:

 

e|--0--0--0--0--0--0--0--0--0---2--2--2--2--2--2--2--2--2---4--4--4--4--4--4--4--4--4--|

B|--0--0--0--0--0--0--0--0--0---2--2--2--2--2--2--2--2--2---4--4--4--4--4--4--4--4--4--|

G|--1--1--1--1--1--1--1--1--1---3--3--3--3--3--3--3--3--3---4--4--4--4--4--4--4--4--4--|

D|--2--2--2--2--2--2--2--2--2---4--4--4--4--4--4--4--4--4---6--6--6--6--6--6--6--6--6--|

A|--2--2--2--2--2--2--2--2--2---4--4--4--4--4--4--4--4--4---6--6--6--6--6--6--6--6--6--|

E|--0--0--0--0--0--0--0--0--0---2--2--2--2--2--2--2--2--2---4--4--4--4--4--4--4--4--4--|

 

GUITAR 2:

 

e|---------------------------------------------------------|

B|--11-h-12---14-b--14-b--14--12--12--11-------------------|

G|----------------------------------------11--11--11-/-13--|

D|---------------------------------------------------------|

A|---------------------------------------------------------|

E|---------------------------------------------------------|

 

GUITAR 3:

 

e|--------4-----6-----4------------6-----7-----6------------4-----6-----4--------|

B|-----5-----5-----5-----5------7-----7-----7-----7------4-----4-----4-----4-----|

G|--4------------------------6------------------------4-----------------------4--|

D|-------------------------------------------------------------------------------|

A|-------------------------------------------------------------------------------|

E|-------------------------------------------------------------------------------|

 

GUITAR 4:

 

e|--7------9-------11--|

B|--9------11------12--|

G|--9------11------13--|

D|--9------11------13--|

A|--7------9-------11--|

E|---------------------|

 

GUITAR 1:

 

e|----------------------------------------------------------|

B|----------------------------------------------------------|

G|---------6--4------4-------------4----------4----------4--|

D|--4-/-6-----6---6-----6---2-/-4------2-/-4------2-/-4-----|

A|----------------------------------------------------------|

E|----------------------------------------------------------|

 

GUITAR 4:

 

e|-------------------------------------------|

B|-------------------------------------------|

G|--18---16---16--16-h-18-p-16---15--16------|

D|---------------------------------------16--|

A|-------------------------------------------|

E|-------------------------------------------|

 

GUITAR 1:

 

e|----------------------------------------------------------|

B|----------------------------------------------------------|

G|---------6--4------4-------------4----------4----------4--|

D|--4-/-6-----6---6-----6---2-/-4------2-/-4------2-/-4-----|

A|----------------------------------------------------------|

E|----------------------------------------------------------|

 

GUITAR 4:

 

e|-------------------------------------------|

B|---------------------------------------19--|

G|--18---16---16--16-h-18-p-16---15--16------|

D|-------------------------------------------|

A|-------------------------------------------|

E|-------------------------------------------|

 

 

Verse/Estrofa:

 

GUITAR 1:

 

e|--4--4--4--4--4--4--4--4---4--4--4--4--4--4--4--4---2--2--2--2--2--2--2--2---2--2--2--2--2--2--2--2--|

B|--6--6--6--6--6--6--6--6---4--4--4--4--4--4--4--4---2--2--2--2--2--2--2--2---2--2--2--2--2--2--2--2--|

G|--6--6--6--6--6--6--6--6---4--4--4--4--4--4--4--4---3--3--3--3--3--3--3--3---2--2--2--2--2--2--2--2--|

D|--6--6--6--6--6--6--6--6---4--4--4--4--4--4--4--4---4--4--4--4--4--4--4--4---4--4--4--4--4--4--4--4--|

A|--4--4--4--4--4--4--4--4---4--4--4--4--4--4--4--4---4--4--4--4--4--4--4--4---4--4--4--4--4--4--4--4--|

E|----------------------------------------------------2--2--2--2--2--2--2--2---2--2--2--2--2--2--2--2--|

 

GUITAR 2:

 

e|----------------------------------------------------------------------------------|

B|----------------------------------------------------------------------------------|

G|--11--10--11--10--11--11-/-13---11--10--11--10--11--11-/-13-----------------------|

D|-------------------------------------------------------------11--11-----------11--|

A|----------------------------------------------------------------------13--13------|

E|----------------------------------------------------------------------------------|

 

GUITAR 3:

 

e|--4------4---4----2------2--|

B|--6------4---4----2------2--|

G|--6------4---4----3------2--|

D|--6------4--------4------4--|

A|--4------4--------4------4--|

E|------------------2------2--|

 

GUITAR 1:

 

e|--6--6--6--6--6--6--6--6---6--6--6--6--6--6--6--6---2--2--2--2--2--2--2--2---2--2--2--2--2--2--2--2--|

B|--6--6--6--6--6--6--6--6---6--6--6--6--6--6--6--6---2--2--2--2--2--2--2--2---2--2--2--2--2--2--2--2--|

G|--6--6--6--6--6--6--6--6---6--6--6--6--6--6--6--6---3--3--3--3--3--3--3--3---3--3--3--3--3--3--3--3--|

D|--8--8--8--8--8--8--8--8---8--8--8--8--8--8--8--8---4--4--4--4--4--4--4--4---4--4--4--3--4--4--4--4--|

A|--8--8--8--8--8--8--8--8---8--8--8--8--8--8--8--8---4--4--4--4--4--4--4--4---4--4--4--4--4--4--4--4--|

E|--6--6--6--6--6--6--6--6---6--6--6--6--6--6--6--6---2--2--2--2--2--2--2--2---2--2--2--2--2--2--2--2--|

 

GUITAR 2:

 

e|-------------------------------------------------------------------------------------|

B|-------------------------------------------------------------------------------------|

G|--11--11--11--11--10----------10-----------10--------------10------------------------|

D|----------------------13--13-------------------13--11--13------13--13---13-/-15--11--|

A|-----------------------------------13--13--------------------------------------------|

E|-------------------------------------------------------------------------------------|

 

GUITAR 3:

 

e|--6-------------------2--------------------------------------|

B|--6---------6---------2---11--#--11--#--#--11--#--#--12--11--|

G|--6------------6------3---11--#--11--#--#--11--#--#--11--11--|

D|--8------8--------8---4---11--#--11--#--#--11--#--#--11--11--|

A|--8-------------------4--------------------------------------|

E|--6-------------------2--------------------------------------|

 

 

Pre-Chorus/Pre-Estribillo:

 

GUITAR 1:

 

e|--2--#--#--2--#--2--#--#--2--2--#--#---2--#--#--2--#--2--#--#--2--2--#--#--|

B|--4--#--#--4--#--4--#--#--4--4--#--#---2--#--#--2--#--2--#--#--2--2--#--#--|

G|--4--#--#--4--#--4--#--#--4--4--#--#---3--#--#--3--#--3--#--#--3--3--#--#--|

D|--4--#--#--4--#--4--#--#--4--4--#--#---4--#--#--4--#--4--#--#--4--4--#--#--|

A|--2--#--#--2--#--2--#--#--2--2--#--#---4--#--#--4--#--4--#--#--4--4--#--#--|

E|---------------------------------------2--#--#--2--#--2--#--#--2--2--#--#--|

 

GUITAR 2:

 

e|-----------------------------------------------------------|

B|-----------------------------------------------------------|

G|------10--11------10--11------10--11--10-------------------|

D|--13----------13----------13--------------13--11-/-13--11--|

A|-----------------------------------------------------------|

E|-----------------------------------------------------------|

 

GUITAR 3:

 

e|-----------------------------------------------------------------------|

B|--4--#--#--4--#--4--#--#--4--4--#--#---2--#--#--2--#--2--#--#--12--11--|

G|--4--#--#--4--#--4--#--#--4--4--#--#---3--#--#--3--#--3--#--#--11--11--|

D|--4--#--#--4--#--4--#--#--4--4--#--#---4--#--#--4--#--4--#--#--11--11--|

A|-----------------------------------------------------------------------|

E|-----------------------------------------------------------------------|

 

GUITAR 4:

 

e|------------------------------------------------------------------------------------------------|

B|--#--#--4--#--4--#--#---------#--4--#--#--4--4---#--#--2--#--2--#--#---------#--2--#--#---------|

G|--#--#--4--#--4--#--#---------#--4--#--#--4--4---#--#--3--#--3--#--#---------#--3--#--#---------|

D|--#--#--4--#--4--#--#--4-h-6--#--4--#--#--4--4---#--#--4--#--4--#--#---------#--4--#--#--4-h-6--|

A|----------------------------------------------------------------------4-h-6---------------------|

E|------------------------------------------------------------------------------------------------|

 

GUITAR 1:

 

e|--2--#--#--2--#--2--#--#--2--2--#--#---1--1--#--#--6--6--6--|

B|--4--#--#--4--#--4--#--#--4--4--#--#---2--2--#--#--7--7--7--|

G|--4--#--#--4--#--4--#--#--4--4--#--#---3--3--#--#--8--8--8--|

D|--4--#--#--4--#--4--#--#--4--4--#--#---3--3--#--#--8--8--8--|

A|--2--#--#--2--#--2--#--#--2--2--#--#---1--1--#--#--6--6--6--|

E|------------------------------------------------------------|

 

GUITAR 2:

 

e|-------------------------------------------------------------------|

B|-----------------------------------------------------------11------|

G|------10--11------10--11------10--11--10----------11---13------11--|

D|--13----------13----------13--------------13--11-------------------|

A|-------------------------------------------------------------------|

E|-------------------------------------------------------------------|

 

GUITAR 3:

 

e|------------------------------------------------------------|

B|--4--#--#--4--#--4--#--#--4--4--#--#---6--6--#--#--7--7--7--|

G|--4--#--#--4--#--4--#--#--4--4--#--#---6--6--#--#--8--8--8--|

D|--4--#--#--4--#--4--#--#--4--4--#--#---8--8--#--#--8--8--8--|

A|------------------------------------------------------------|

E|------------------------------------------------------------|

 

GUITAR 4:

 

e|----------------------------------------------------------------------------|

B|--#--#--4--#--4--#--#---------#--4--#--#--4--4---#--#--6--#--#--#--7--7--7--|

G|--#--#--4--#--4--#--#--4-h-6--#--4--#--#--4--4---#--#--6--#--#--#--8--8--8--|

D|--#--#--4--#--4--#--#---------#--4--#--#--4--4---#--#--8--#--#--#--8--8--8--|

A|----------------------------------------------------------------------------|

E|----------------------------------------------------------------------------|

 

GUITAR 1:

 

e|--4--4--4--4--4--4--4--4---6--6--6--6---3--|

B|--4--4--4--4--4--4--4--4---6--6--6--6---3--|

G|--5--5--5--5--5--5--5--5---7--7--7--7---4--|

D|--6--6--6--6--6--6--6--6---8--8--8--8---5--|

A|--6--6--6--6--6--6--6--6---8--8--8--8---5--|

E|--4--4--4--4--4--4--4--4---6--6--6--6---3--|

 

GUITAR 2:

 

e|------------------------------------------|

B|--------------------11----------------11--|

G|--11-h-13--13-----------13--11-/-13-------|

D|----------------13------------------------|

A|------------------------------------------|

E|------------------------------------------|

 

GUITAR 3:

 

e|--4--4--4--4--4--4--4--4---6--6--6--6---3--|

B|--4--4--4--4--4--4--4--4---6--6--6--6---3--|

G|--5--5--5--5--5--5--5--5---7--7--7--7---4--|

D|--6--6--6--6--6--6--6--6---8--8--8--8---5--|

A|--6--6--6--6--6--6--6--6---8--8--8--8---5--|

E|--4--4--4--4--4--4--4--4---6--6--6--6---3--|

 

GUITAR 4:

 

e|-----------------------------------------------|

B|--9--9--9--9--9--9--9--9---11--11--11--11---8--|

G|-----------------------------------------------|

D|--6--6--6--6--6--6--6--6---9---9---9---9----5--|

A|-----------------------------------------------|

E|-----------------------------------------------|

 

 

Chorus/Estribillo:

 

GUITAR 1:

 

e|--0--0--0--0--0--0--0--0--0---2--2--2--2--2--2--2--2--2--|

B|--0--0--0--0--0--0--0--0--0---2--2--2--2--2--2--2--2--2--|

G|--1--1--1--1--1--1--1--1--1---3--3--3--3--3--3--3--3--3--|

D|--2--2--2--2--2--2--2--2--2---4--4--4--4--4--4--4--4--4--|

A|--2--2--2--2--2--2--2--2--2---4--4--4--4--4--4--4--4--4--|

E|--0--0--0--0--0--0--0--0--0---2--2--2--2--2--2--2--2--2--|

 

GUITAR 2:

 

e|------------------------------------------------------------|

B|--11--12--12--12--12--12--11--------------------------------|

G|------------------------------13--11-/-13--11--11-------11--|

D|----------------------------------------------------13------|

A|------------------------------------------------------------|

E|------------------------------------------------------------|

 

GUITAR 3:

 

e|--------4-----6-----4------------6-----7-----6-----|

B|-----5-----5-----5-----5------7-----7-----7-----7--|

G|--4------------------------6-----------------------|

D|---------------------------------------------------|

A|---------------------------------------------------|

E|---------------------------------------------------|

 

GUITAR 4:

 

e|--7------9---|

B|--9------11--|

G|--9------11--|

D|--9------11--|

A|--7------9---|

E|-------------|

 

GUITAR 1:

 

e|--6--6--6--6--6--6--6--6--6---4--4--4--4--4--4--4--4--4--|

B|--7--7--7--7--7--7--7--7--7---4--4--4--4--4--4--4--4--4--|

G|--8--8--8--8--8--8--8--8--8---4--4--4--4--4--4--4--4--4--|

D|--8--8--8--8--8--8--8--8--8---6--6--6--6--6--6--6--6--6--|

A|--6--6--6--6--6--6--6--6--6---6--6--6--6--6--6--6--6--6--|

E|------------------------------4--4--4--4--4--4--4--4--4--|

 

GUITAR 2:

 

e|---------------------------------------|

B|---------------------------------------|

G|--11-----------11--11--13--------------|

D|-------13--13--------------13--11--14--|

A|---------------------------------------|

E|---------------------------------------|

 

GUITAR 3:

 

e|--------6-----7-----6------------4-----6-----4--------|

B|-----7-----7-----7-----7------4-----4-----4-----4-----|

G|--6------------------------4-----------------------4--|

D|------------------------------------------------------|

A|------------------------------------------------------|

E|------------------------------------------------------|

 

GUITAR 4:

 

e|--6------11--|

B|--7------12--|

G|--8------13--|

D|--8------13--|

A|--6------11--|

E|-------------|

 

GUITAR 1:

 

e|--0--0--0--0--0--0--0--0--0---2--2--2--2--2--2--2--2--2--|

B|--0--0--0--0--0--0--0--0--0---2--2--2--2--2--2--2--2--2--|

G|--1--1--1--1--1--1--1--1--1---3--3--3--3--3--3--3--3--3--|

D|--2--2--2--2--2--2--2--2--2---4--4--4--4--4--4--4--4--4--|

A|--2--2--2--2--2--2--2--2--2---4--4--4--4--4--4--4--4--4--|

E|--0--0--0--0--0--0--0--0--0---2--2--2--2--2--2--2--2--2--|

 

GUITAR 2:

 

e|--------------------------------------------------------------|

B|-----------------------------------------11-/-12--11------11--|

G|--13-------13-------13--------------------------------13------|

D|------13-------13-------13--13--13--13------------------------|

A|--------------------------------------------------------------|

E|--------------------------------------------------------------|

 

GUITAR 3:

 

e|--------4-----6-----4------------6-----7-----6-----|

B|-----5-----5-----5-----5------7-----7-----7-----7--|

G|--4------------------------6-----------------------|

D|---------------------------------------------------|

A|---------------------------------------------------|

E|---------------------------------------------------|

 

GUITAR 4:

 

e|--7------9---|

B|--9------11--|

G|--9------11--|

D|--9------11--|

A|--7------9---|

E|-------------|

 

GUITAR 1:

 

e|--4--4--4--4--4--4--4--4--4---4--x--4--x--x--4--x--4--x--x--4--4--|

B|--4--4--4--4--4--4--4--4--4---4--x--4--x--x--4--x--4--x--x--4--4--|

G|--4--4--4--4--4--4--4--4--4---4--x--4--x--x--4--x--4--x--x--4--4--|

D|--6--6--6--6--6--6--6--6--6---6--x--6--x--x--6--x--6--x--x--6--6--|

A|--6--6--6--6--6--6--6--6--6---6--x--6--x--x--6--x--6--x--x--6--6--|

E|--4--4--4--4--4--4--4--4--4---4--x--4--x--x--4--x--4--x--x--4--4--|

 

GUITAR 2:

 

e|--------------------------------|

B|-------12------12-/-14--12------|

G|--13-------13---------------13--|

D|--------------------------------|

A|--------------------------------|

E|--------------------------------|

 

GUITAR 3:

 

e|--------4-----6-----4---------7--6--4--------4-----|

B|-----4-----4-----4-----4------4--4--4--4--------4--|

G|--4-----------------------4---4--4--4-----4--------|

D|---------------------------------------------------|

A|---------------------------------------------------|

E|---------------------------------------------------|

 

GUITAR 4:

 

e|--11------11--#--11--#--#--11--|

B|--12------12--#--12--#--#--12--|

G|--13------13--#--13--#--#--13--|

D|--13------13--#--13--#--#--13--|

A|--11------11--#--11--#--#--11--|

E|-------------------------------|

 

GUITAR 1:

 

e|--0--0--0--0--0--0--0--0--0---2--2--2--2--2--2--2--2--2--|

B|--0--0--0--0--0--0--0--0--0---2--2--2--2--2--2--2--2--2--|

G|--1--1--1--1--1--1--1--1--1---3--3--3--3--3--3--3--3--3--|

D|--2--2--2--2--2--2--2--2--2---4--4--4--4--4--4--4--4--4--|

A|--2--2--2--2--2--2--2--2--2---4--4--4--4--4--4--4--4--4--|

E|--0--0--0--0--0--0--0--0--0---2--2--2--2--2--2--2--2--2--|

 

GUITAR 2:

 

e|------------------------------------------------------------|

B|--11--12--12--12--12--12--11--------------------------------|

G|------------------------------13--11-/-13--11--11-------11--|

D|----------------------------------------------------13------|

A|------------------------------------------------------------|

E|------------------------------------------------------------|

 

GUITAR 3:

 

e|--------4-----6-----4------------6-----7-----6-----|

B|-----5-----5-----5-----5------7-----7-----7-----7--|

G|--4------------------------6-----------------------|

D|---------------------------------------------------|

A|---------------------------------------------------|

E|---------------------------------------------------|

 

GUITAR 4:

 

e|--7------9---|--6------11--|

B|--9------11--|--7------12--|

G|--9------11--|--8------13--|

D|--9------11--|--8------13--|

A|--7------9---|--6------11--|

E|-------------|-------------|

 

GUITAR 1:

 

e|--6--6--6--6--6--6--6--6--6---4--4--4--4--4--4--4--4--4--|

B|--7--7--7--7--7--7--7--7--7---4--4--4--4--4--4--4--4--4--|

G|--8--8--8--8--8--8--8--8--8---4--4--4--4--4--4--4--4--4--|

D|--8--8--8--8--8--8--8--8--8---6--6--6--6--6--6--6--6--6--|

A|--6--6--6--6--6--6--6--6--6---6--6--6--6--6--6--6--6--6--|

E|------------------------------4--4--4--4--4--4--4--4--4--|

 

GUITAR 2:

 

e|-------------------------------------------------|

B|-------------------12-/-14--12--11--12-------11--|

G|--11-----------11------------------------13------|

D|-------13--13------------------------------------|

A|-------------------------------------------------|

E|-------------------------------------------------|

 

GUITAR 3:

 

e|-------6-----7-----6------------4-----6-----4--------|

B|----7-----7-----7-----7------4-----4-----4-----4-----|

G|-6------------------------4-----------------------4--|

D|-----------------------------------------------------|

A|-----------------------------------------------------|

E|-----------------------------------------------------|

 

GUITAR 4:

 

e|--6------11--|

B|--7------12--|

G|--8------13--|

D|--8------13--|

A|--6------11--|

E|-------------|

 

GUITAR 1:

 

e|--0--0--0--0--0--0--0--0--0---2--2--2--2--2--2--2--2--2--|

B|--0--0--0--0--0--0--0--0--0---2--2--2--2--2--2--2--2--2--|

G|--1--1--1--1--1--1--1--1--1---3--3--3--3--3--3--3--3--3--|

D|--2--2--2--2--2--2--2--2--2---4--4--4--4--4--4--4--4--4--|

A|--2--2--2--2--2--2--2--2--2---4--4--4--4--4--4--4--4--4--|

E|--0--0--0--0--0--0--0--0--0---2--2--2--2--2--2--2--2--2--|

 

GUITAR 2:

 

e|---------------------------------------------------------|

B|--11-h-12---14-b--14-b--14--12--12--11-------------------|

G|----------------------------------------11--11--11-/-13--|

D|---------------------------------------------------------|

A|---------------------------------------------------------|

E|---------------------------------------------------------|

 

GUITAR 3:

 

e|--------4-----6-----4------------6-----7-----6-----|

B|-----5-----5-----5-----5------7-----7-----7-----7--|

G|--4------------------------6-----------------------|

D|---------------------------------------------------|

A|---------------------------------------------------|

E|---------------------------------------------------|

 

GUITAR 4:

 

e|--7------9---|

B|--9------11--|

G|--9------11--|

D|--9------11--|

A|--7------9---|

E|-------------|

 

 

Outro:

 

e|----------------------------------------------------------|

B|----------------------------------------------------------|

G|---------6--4------4-------------4----------4----------4--|

D|--4-/-6-----6---6-----6---2-/-4------2-/-4------2-/-4-----|

A|----------------------------------------------------------|

E|----------------------------------------------------------|

 

 

LIFE - Tron544
00:00 / 00:00

©2019 by Fefe - Tron544

Sigueme en:

  • YouTube - White Circle
  • Facebook - White Circle
  • Instagram - White Circle
  • Twitter - White Circle
This site was designed with the
.com
website builder. Create your website today.
Start Now