~ LET'S BEYBLADE! ~

TABLATURAS ~ By Fefe - Tron544

 

Intro:

 

e|-------------------------------------------------|

B|----------------------------9--9--9--9--9--9--9--|

G|----------------------------6--6--6--6--6--6--6--|

D|--3--4--4--4---3--4--4--4------------------------|

A|--3--4--4--4---3--4--4--4------------------------|

E|--1--2--2--2---1--2--2--2------------------------|

 

e|-------------------------------------------------|

B|----------------------------7--7--7--7--7--7--7--|

G|--3--4--4--4---3--4--4--4---6--6--6--6--6--6--6--|

D|--3--4--4--4---3--4--4--4------------------------|

A|--1--2--2--2---1--2--2--2------------------------|

E|-------------------------------------------------|

 

e|-------------------------------------------------|

B|----------------------------9--9--9--9--9--9--9--|

G|----------------------------6--6--6--6--6--6--6--|

D|--3--4--4--4---3--4--4--4------------------------|

A|--3--4--4--4---3--4--4--4------------------------|

E|--1--2--2--2---1--2--2--2------------------------|

 

e|-------------------------------------------------|-------------|

B|----------------------------7--7--7--7--7--7--7--|-------------|

G|--3--4--4--4---3--4--4--4---6--6--6--6--6--6--6--|------3---4--|

D|--3--4--4--4---3--4--4--4------------------------|--6---3---4--|

A|--1--2--2--2---1--2--2--2------------------------|--6---1---2--|

E|-------------------------------------------------|--4----------|

 

First Verse/Primera Estrofa:

 

GUITAR 1:

 

e|-----------------------------------------------------------------------------|

B|-----------------------------------------------------------------------------|

G|----------------------------------------(4)-x--4--x--x--4--x--x--4--x--x--4--|

D|--(4)-x--4--x--x--4--x--x--4--x--x--4---(4)-x--4--x--x--4--x--x--4--x--x--4--|

A|--(4)-x--4--x--x--4--x--x--4--x--x--4---(2)-x--2--x--x--2--x--x--2--x--x--2--|

E|--(2)-x--2--x--x--2--x--x--2--x--x--2----------------------------------------|

 

GUITAR 2:

 

e|------------------------------------------------------------------------|

B|------------------------------------------------------------------------|

G|--6--6--6--6---------6--6--6---------6--6--6---------6--6--6------------|

D|---------------8--9------------8--9------------8--9------------8--8--9--|

A|------------------------------------------------------------------------|

E|------------------------------------------------------------------------|

 

GUITAR 1:

 

e|-----------------------------------------------------------------------------|-------------|

B|-----------------------------------------------------------------------------|-------------|

G|----------------------------------------(4)-x--4--x--x--4--x--x--4--x--x--4--|--8---6---4--|

D|--(4)-x--4--x--x--4--x--x--4--x--x--4---(4)-x--4--x--x--4--x--x--4--x--x--4--|--8---6---4--|

A|--(4)-x--4--x--x--4--x--x--4--x--x--4---(2)-x--2--x--x--2--x--x--2--x--x--2--|--6---4---2--|

E|--(2)-x--2--x--x--2--x--x--2--x--x--2----------------------------------------|-------------|

 

GUITAR 2:

 

e|--------------------------------------------|-------------|

B|-----------------------------------------7--|--11--11--7--|

G|--6--6--6---6--6----------------------------|-------------|

D|-------------------9--9--8--9--8--9---------|-------------|

A|-------------------------------------9------|-------------|

E|--------------------------------------------|-------------|

 

 

Interlude/Intermedio:

 

e|-------------------------------------------------------------------------------------------------|

B|----------------------------9--9--9--9--9--9--9-----------------------------7--7--7--7--7--7--7--|

G|----------------------------6--6--6--6--6--6--6---3--4--4--4---3--4--4--4---6--6--6--6--6--6--6--|

D|--3--4--4--4---3--4--4--4-------------------------3--4--4--4---3--4--4--4------------------------|

A|--3--4--4--4---3--4--4--4-------------------------1--2--2--2---1--2--2--2------------------------|

E|--1--2--2--2---1--2--2--2------------------------------------------------------------------------|

 

 

Second Verse/Segunda Estrofa:

 

GUITAR 1:

 

e|-----------------------------------------------------------------------------|

B|-----------------------------------------------------------------------------|

G|----------------------------------------(4)-x--4--x--x--4--x--x--4--x--x--4--|

D|--(4)-x--4--x--x--4--x--x--4--x--x--4---(4)-x--4--x--x--4--x--x--4--x--x--4--|

A|--(4)-x--4--x--x--4--x--x--4--x--x--4---(2)-x--2--x--x--2--x--x--2--x--x--2--|

E|--(2)-x--2--x--x--2--x--x--2--x--x--2----------------------------------------|

 

GUITAR 2:

 

e|---------------------------------------------------------------------|

B|---------------------------------------------------------------------|

G|--6--6--6--6---------6--6--6---------6--6--6---------6--6--6---------|

D|---------------8--9------------8--9------------8--9------------8--9--|

A|---------------------------------------------------------------------|

E|---------------------------------------------------------------------|

 

GUITAR 1:

 

e|-----------------------------------------------------------------------------|

B|-----------------------------------------------------------------------------|

G|----------------------------------------(4)-x--4--x--x--4--x--x--4--x--x--4--|

D|--(4)-x--4--x--x--4--x--x--4--x--x--4---(4)-x--4--x--x--4--x--x--4--x--x--4--|

A|--(4)-x--4--x--x--4--x--x--4--x--x--4---(2)-x--2--x--x--2--x--x--2--x--x--2--|

E|--(2)-x--2--x--x--2--x--x--2--x--x--2----------------------------------------|

 

GUITAR 2:

 

e|-----------------------------------------------|

B|----------------------------6--6--6--7--9---7--|

G|--6--6--6--6---6--6---6--6---------------------|

D|-----------------------------------------------|

A|-----------------------------------------------|

E|-----------------------------------------------|

 

GUITAR 1:

 

e|--------------------------|

B|--11--11--7----11--11--7--|

G|--------------------------|

D|--------------------------|

A|--------------------------|

E|--------------------------|

 

GUITAR 2:

 

e|---------------------------------------|

B|---------------------------------------|

G|--8---6---4----8---6---4--------3---4--|

D|--8---6---4----8---6---4----6---3---4--|

A|--6---4---2----6---4---2----6---1---2--|

E|----------------------------4----------|

 

 

Pre-Chorus/Pre-Estribillo:

 

e|-----------------------------------------------------------------|

B|-----------------------------------------------------------------|

G|--11--11--------------------------11--11-------------------------|

D|--11--11--------------------------11--11-------------------------|

A|--9---9----0--2--2-(PH)-0--2--0---9---9----0--2--2-(PH)-0--2--0--|

E|-----------------------------------------------------------------|

 

 

Chorus/Estribillo:

 

GUITAR 1:

 

e|-----------------------------------------------------------|----------|

B|-----------------------------------------------------------|----------|

G|-----------------------------------------------------------|----------|

D|--4--4---7--9--9--9--7--9--7---4--4---7--9--9--9--7--9--7--|--4----4--|

A|--4--4---7--9--9--9--7--9--7---4--4---7--9--9--9--7--9--7--|--4----4--|

E|--2--2---5--7--7--7--5--7--5---2--2---5--7--7--7--5--7--5--|--2----2--|

 

GUITAR 2:

 

e|--------------------------------|

B|--7---7--7----7---7--7----7--7--|

G|--------------------------------|

D|--------------------------------|

A|--------------------------------|

E|--------------------------------|

Let's Beyblade! - Tron544
00:00 / 00:00

©2019 by Fefe - Tron544

Sigueme en:

  • YouTube - White Circle
  • Facebook - White Circle
  • Instagram - White Circle
  • Twitter - White Circle
This site was designed with the
.com
website builder. Create your website today.
Start Now