LET ME HEAR

PARASYTE

TABS ~ By Fefe (Tron544)

 

Intro:

 

GUITAR 1:

 

e|----------------------------------------------------|

B|----------------------------------------------------|

G|----------------------------------------------------|

D|--(4)-x--x--x--x--x--x--x---x--x--x--x--x--x--x--x--|

A|--(4)-x--x--x--x--x--x--x---x--x--x--x--x--x--x--x--|

D|--(4)-x--x--x--x--x--x--x---x--x--x--x--x--x--x--x--|

 

GUITAR 2:

 

e|--------------|-------------------------------|

B|--------------|-------------------------------|

G|----------13--|--14--13-------------------13--|

D|--16--16------|----------16--14--16---16------|

A|--------------|-------------------------------|

D|--------------|-------------------------------|

 

GUITAR 3:

 

e|-----------------------------------|

B|-----------------------------------|

G|------6-------4--------------------|

D|--7-------7-------7---6---7--6-----|

A|--------------------------------7--|

D|-----------------------------------|

 

GUITAR 1:

 

e|-----------------------------------------------------|

B|-----------------------------------------------------|

G|-----------------------------------------------------|

D|--(4)-x--x--x--x--x--x--x---(2)-x--x--x--x--x--x--x--|

A|--(4)-x--x--x--x--x--x--x---(2)-x--x--x--x--x--x--x--|

D|--(4)-x--x--x--x--x--x--x---(2)-x--x--x--x--x--x--x--|

 

GUITAR 2:

 

e|-----------------------------------|

B|-----------------------------------|

G|--14--13---------------------------|

D|----------16--14--16---14------14--|

A|---------------------------16------|

D|-----------------------------------|

 

GUITAR 3:

 

e|-----------------------------------|

B|-----------------------------------|

G|------6-------4--------------------|

D|--7-------7-------7---6---7--7--7--|

A|-----------------------------------|

D|-----------------------------------|

 

GUITAR 1:

 

e|-------------------------------------------------------------------------------------------------------|

B|-------------------------------------------------------------------------------------------------------|

G|-------------------------------------------------------------------------------------------------------|

D|--(0)-x--x--x--x--x--x--x---x--x--x--x--x--x--x--x---x--x--x--x--x--x--x--x---(2)-x--x--x--x--x--x--x--|

A|--(0)-x--x--x--x--x--x--x---x--x--x--x--x--x--x--x---x--x--x--x--x--x--x--x---(2)-x--x--x--x--x--x--x--|

D|--(0)-x--x--x--x--x--x--x---x--x--x--x--x--x--x--x---x--x--x--x--x--x--x--x---(2)-x--x--x--x--x--x--x--|

 

GUITAR 2:

 

e|-------------------------------------------------------------|

B|-------------------------------------------------------------|

G|---------------------------------------------------------13--|

D|--14-------14--14-------14--14------16--14--14-------16------|

A|-------16-----------16----------16--------------16-----------|

D|-------------------------------------------------------------|

 

GUITAR 3:

 

e|---------------------------------------------------------------------|

B|---------------------------------------------------------------------|

G|------6-------4-------------------------6-------4--------------------|

D|--7-------7-------7---6---7--6------7-------7-------7---6---------4--|

A|--------------------------------7---------------------------7--7-----|

D|---------------------------------------------------------------------|

 

GUITAR 1:

 

e|------------------------------------------------------------------------------------------------------|

B|------------------------------------------------------------------------------------------------------|

G|------------------------------------------------------------------------------------------------------|

D|--(4)-x--x--x--x--x--x--x---x--x--x--x--x--x--x--x---x--x--x--x--x--x--x--x---x--x--x--x--x--x--x--x--|

A|--(4)-x--x--x--x--x--x--x---x--x--x--x--x--x--x--x---x--x--x--x--x--x--x--x---x--x--x--x--x--x--x--x--|

D|--(4)-x--x--x--x--x--x--x---x--x--x--x--x--x--x--x---x--x--x--x--x--x--x--x---x--x--x--x--x--x--x--x--|

 

GUITAR 2:

 

e|------------------------------------------------------------|

B|-----------14-----------------------------------------------|

G|--14-----------14-------13--14------14--16--14--------------|

D|-------16-----------16----------16--------------16--16--14--|

A|------------------------------------------------------------|

D|------------------------------------------------------------|

 

GUITAR 3:

 

e|---------------------------------------------------------------------|

B|---------------------------------------------------------------------|

G|------6-------4-------------------------6-------4--------------------|

D|--7-------7-------7---6---7--6------7-------7-------7---6---7--7--7--|

A|--------------------------------7------------------------------------|

D|---------------------------------------------------------------------|

 

GUITAR 1:

 

e|----------------------------------------------------------------------------------------------------|

B|----------------------------------------------------------------------------------------------------|

G|----------------------------------------------------------------------------------------------------|

D|--(0)-x--x--x--x--x--x--x---x--x--x--x--x--x--x--x---x--x--x--x--x--x--x--x---(2)-x--x--x--x--x--x--|

A|--(0)-x--x--x--x--x--x--x---x--x--x--x--x--x--x--x---x--x--x--x--x--x--x--x---(2)-x--x--x--x--x--x--|

D|--(0)-x--x--x--x--x--x--x---x--x--x--x--x--x--x--x---x--x--x--x--x--x--x--x---(2)-x--x--x--x--x--x--|

 

GUITAR 2:

 

e|-----------------------------------------------------------|

B|----------------------------------------------12-/-14--14--|

G|---------------------------------13-h-14--14---------------|

D|--16---16--14--16---16--14--16-----------------------------|

A|-----------------------------------------------------------|

D|-----------------------------------------------------------|

 

GUITAR 3:

 

e|-------------------------------------------------------------------|

B|-------------------------------------------------------------------|

G|------6-------4-------------------------6-------4--4--4---6--6--6--|

D|--7-------7-------7---6---7--6------7-------7----------------------|

A|--------------------------------7----------------------------------|

D|-------------------------------------------------------------------|

 

GUITAR 1:

 

e|-----------------------------------------------------------------------------------------------------|

B|-----------------------------------------------------------------------------------------------------|

G|-----------------------------------------------------------------------------------------------------|

D|--4--4--4--4--4--4--4--4---4--4--4--4--4--4--4--4---4--4--4--4--4--4--4--4---4--4--4--4--4--4--4--4--|

A|--4--4--4--4--4--4--4--4---4--4--4--4--4--4--4--4---4--4--4--4--4--4--4--4---4--4--4--4--4--4--4--4--|

D|--4--4--4--4--4--4--4--4---4--4--4--4--4--4--4--4---4--4--4--4--4--4--4--4---4--4--4--4--4--4--4--4--|

 

GUITAR 3:

 

e|----------------------------------------------------------------------------------------------------------|

B|--7--7--7--7--7--7--7--7--7--7--7--7--7--7--7--7--9--9--9--9--9--9--9--9--10--10--10--10--12--12--12--12--|

G|----------------------------------------------------------------------------------------------------------|

D|--4--4--4--4--4--4--4--4--4--4--4--4--4--4--4--4--6--6--6--6--6--6--6--6--7---7---7---7---9---9---9---9---|

A|----------------------------------------------------------------------------------------------------------|

D|----------------------------------------------------------------------------------------------------------|

 

GUITAR 1:

 

e|---------------------------------------------------|

B|---------------------------------------------------|

G|---------------------------------------------------|

D|--0--0--0--0--0--0--0--0---0--0--0--0--0--0--0--0--|

A|--0--0--0--0--0--0--0--0---0--0--0--0--0--0--0--0--|

D|--0--0--0--0--0--0--0--0---0--0--0--0--0--0--0--0--|

 

GUITAR 3:

 

e|-------------------------------------------------------------------|

B|--14--14--14--14--14--14--14--14---14--14--14--14--14--14--14--14--|

G|-------------------------------------------------------------------|

D|--11--11--11--11--11--11--11--11---11--11--11--11--11--11--11--11--|

A|-------------------------------------------------------------------|

D|-------------------------------------------------------------------|

 

GUITAR 1:

 

e|------------------------------------------------|

B|------------------------------------------------|

G|------------------------------------------------|

D|--2--2--2--2--2--2--2--2---2--2--2--2--2--2--2--|

A|--2--2--2--2--2--2--2--2---2--2--2--2--2--2--2--|

D|--2--2--2--2--2--2--2--2---2--2--2--2--2--2--2--|

 

GUITAR 3:

 

e|------------------------------------------------------------|

B|--12--12--12--12--12--12--12--12---10--10--10--10--9--9--9--|

G|------------------------------------------------------------|

D|--9---9---9---9---9---9---9---9----7---7---7---7---6--6--6--|

A|------------------------------------------------------------|

D|------------------------------------------------------------|

Let Me Hear - Tron544
00:00 / 00:00
DONATE%20BUTTON%20(EN)_edited.png

Verse/Estrofa:

 

GUITAR 1:

 

e|-------------------------------------------------------------------------------------------------------|

B|-------------------------------------------------------------------------------------------------------|

G|-------------------------------------------------------------------------------------------------------|

D|--(4)-x--x--x--x--x--x--x---x--x--x--x--x--x--x--x---x--x--x--x--x--x--x--x---(2)-x--x--x--x--x--x--x--|

A|--(4)-x--x--x--x--x--x--x---x--x--x--x--x--x--x--x---x--x--x--x--x--x--x--x---(2)-x--x--x--x--x--x--x--|

D|--(4)-x--x--x--x--x--x--x---x--x--x--x--x--x--x--x---x--x--x--x--x--x--x--x---(2)-x--x--x--x--x--x--x--|

 

GUITAR 2:

 

e|------------------|----------------------------------------------------------------|

B|------------------|----------------------------------------------------------------|

G|--------------13--|--14--13-------------------13--14--13---------------------------|

D|--16--16--16------|----------16--14--16---16--------------16--14--16---14------14--|

A|------------------|--------------------------------------------------------16------|

D|------------------|----------------------------------------------------------------|

 

GUITAR 3:

 

e|-------------------------------------------------|

B|-------------------------------------------------|

G|--6--4--7---6---4---6--4--7---6--4--7---4--6--4--|

D|-------------------------------------------------|

A|-------------------------------------------------|

D|-------------------------------------------------|

 

GUITAR 1:

 

e|-------------------------------------------------------------------------------------------------------|

B|-------------------------------------------------------------------------------------------------------|

G|-------------------------------------------------------------------------------------------------------|

D|--(0)-x--x--x--x--x--x--x---x--x--x--x--x--x--x--x---x--x--x--x--x--x--x--x---(2)-x--x--x--x--x--x--x--|

A|--(0)-x--x--x--x--x--x--x---x--x--x--x--x--x--x--x---x--x--x--x--x--x--x--x---(2)-x--x--x--x--x--x--x--|

D|--(0)-x--x--x--x--x--x--x---x--x--x--x--x--x--x--x---x--x--x--x--x--x--x--x---(2)-x--x--x--x--x--x--x--|

 

GUITAR 2:

 

e|-------------------------------------------------------------|

B|-------------------------------------------------------------|

G|---------------------------------------------------------13--|

D|--14-------14--14-------14--14------16--14--14-------16------|

A|-------16-----------16----------16--------------16-----------|

D|-------------------------------------------------------------|

 

GUITAR 3:

 

e|-----------------------------------------------------|

B|-----------------------------------------------------|

G|--------------------------------------------4--6-----|

D|--7---7--6--9---7---6---7--6--9---7--6--9---------4--|

A|-----------------------------------------------------|

D|-----------------------------------------------------|

 

GUITAR 1:

 

e|-------------------------------------------------------------------------------------------------------|

B|-------------------------------------------------------------------------------------------------------|

G|-------------------------------------------------------------------------------------------------------|

D|--(4)-x--x--x--x--x--x--x---x--x--x--x--x--x--x--x---(0)-x--x--x--x--x--x--x---x--x--x--x--x--x--x--x--|

A|--(4)-x--x--x--x--x--x--x---x--x--x--x--x--x--x--x---(0)-x--x--x--x--x--x--x---x--x--x--x--x--x--x--x--|

D|--(4)-x--x--x--x--x--x--x---x--x--x--x--x--x--x--x---(0)-x--x--x--x--x--x--x---x--x--x--x--x--x--x--x--|

 

GUITAR 2:

 

e|---------------------------------------------------------|

B|-----------14-------------------------------14-----------|

G|--14-----------14-------13--14------14--16-------16--14--|

D|-------16-----------16----------16-----------------------|

A|---------------------------------------------------------|

D|---------------------------------------------------------|

 

GUITAR 3:

 

e|--------------------------------------------------------------------------|

B|--------------------------------------------------------------------------|

G|-----4-------------4--6--4----------------4-------------4--6--4-----------|

D|--7-----6-------7-----------7--6-------7-----6-------7-----------7--6-----|

A|-----------7----------------------7-------------7----------------------7--|

D|--------------------------------------------------------------------------|

 

GUITAR 1:

 

e|-------------------------------------------------------------------------------------------------------|

B|-------------------------------------------------------------------------------------------------------|

G|-----------------------------------------------------(6)-x--x--x--x--x--x--x---x--x--x--x--x--x--x--x--|

D|--(7)-x--x--x--x--x--x--x---x--x--x--x--x--x--x--x---(6)-x--x--x--x--x--x--x---x--x--x--x--x--x--x--x--|

A|--(7)-x--x--x--x--x--x--x---x--x--x--x--x--x--x--x---(4)-x--x--x--x--x--x--x---x--x--x--x--x--x--x--x--|

D|--(7)-x--x--x--x--x--x--x---x--x--x--x--x--x--x--x-----------------------------------------------------|

 

GUITAR 2:

 

e|----------14----------------------------------------|

B|------17------17----------14--------------------14--|

G|--14--------------16--14------16---16--13--16-------|

D|----------------------------------------------------|

A|----------------------------------------------------|

D|----------------------------------------------------|

 

GUITAR 3:

 

e|-------------------------------------|

B|-------------------------------------|

G|-----4-------------4--6--4-----------|

D|--7-----6-------7-----------7--6-----|

A|-----------7----------------------7--|

D|-------------------------------------|

 

 

Pre-Chorus/Pre-Estribillo:

 

GUITAR 1:

 

e|---------------------------------------------------------------------------------------------|

B|---------------------------------------------------------------------------------------------|

G|---------------------------------------------------------------------------------------------|

D|--0--x--x--0--x--x--0--x--x--0--x--x--0--x--0---2--x--x--2--x--x--2--x--x--2--x--x--2--x--2--|

A|--0--x--x--0--x--x--0--x--x--0--x--x--0--x--0---2--x--x--2--x--x--2--x--x--2--x--x--2--x--2--|

D|--0--x--x--0--x--x--0--x--x--0--x--x--0--x--0---2--x--x--2--x--x--2--x--x--2--x--x--2--x--2--|

 

GUITAR 2:

 

e|-----------------------------------------------|

B|-----------------------------------------------|

G|--------------------------13-h-14--13----------|

D|--16--16--14--16--14--16---------------16--14--|

A|-----------------------------------------------|

D|-----------------------------------------------|

 

GUITAR 1:

 

e|--------------------------|

B|--------------------------|

G|--------------------------|

D|--0--x--x--0--x--x--2--2--|

A|--0--x--x--0--x--x--2--2--|

D|--0--x--x--0--x--x--2--2--|

 

GUITAR 2:

 

e|----------------------------|

B|----------------------------|

G|---------------13-h-14--13--|

D|--14-/-16--14---------------|

A|----------------------------|

D|----------------------------|

 

 

Chorus/Estribillo:

 

GUITAR 1:

 

e|---------------------------------------------------------------------------------------------------------|

B|---------------------------------------------------------------------------------------------------------|

G|---------------------------------------------------------------------------------------------6--6--6--6--|

D|--0--0--0--0---2--2--2--2---4--4--4--4---7--7--7--7---0--0--0--0---2--2--2--2---4--4--4--4---6--6--6--6--|

A|--0--0--0--0---2--2--2--2---4--4--4--4---7--7--7--7---0--0--0--0---2--2--2--2---4--4--4--4---4--4--4--4--|

D|--0--0--0--0---2--2--2--2---4--4--4--4---7--7--7--7---0--0--0--0---2--2--2--2---4--4--4--4---------------|

 

GUITAR 2:

 

e|---------------------------------------------------------------------------------------------------|

B|--17---17--15--14--------------14-------------------14-------17-p-15--15-p-14--14----------14------|

G|-------------------16--14--16-----------13--14--16------16-------------------------16--16------14--|

D|------------------------------------16-------------------------------------------------------------|

A|---------------------------------------------------------------------------------------------------|

D|---------------------------------------------------------------------------------------------------|

 

GUITAR 1:

 

e|-------------------------------------------------------------------------------|

B|-------------------------------------------------------------------------------|

G|-------------------------------------------------------------------------------|

D|--0--0--0--0---2--2--2--2---4--4--4--4---7--7--7--7---0--0--0--0---2--2--2--2--|

A|--0--0--0--0---2--2--2--2---4--4--4--4---7--7--7--7---0--0--0--0---2--2--2--2--|

D|--0--0--0--0---2--2--2--2---4--4--4--4---7--7--7--7---0--0--0--0---2--2--2--2--|

 

GUITAR 2:

 

e|------------------------14--------------------------------------------------14----------|

B|--14--15--17----------------17--15--14-------14--15--14---17--17----------------17--17--|

G|---------------13--14-------------------16-------------------------13--14---------------|

D|----------------------------------------------------------------------------------------|

A|----------------------------------------------------------------------------------------|

D|----------------------------------------------------------------------------------------|

 

 

Outro:

 

GUITAR 1:

 

e|---------------------------------------------------------------------------------------------------------|

B|---------------------------------------------------------------------------------------------------------|

G|---------------------------------------------------------------------------------------------------------|

D|--(0)-x--x--x--x--x--x--x---(2)-x--x--x--x--x--x--x---(4)-x--x--x--x--x--x--x---(7)-x--x--x--x--x--x--x--|

A|--(0)-x--x--x--x--x--x--x---(2)-x--x--x--x--x--x--x---(4)-x--x--x--x--x--x--x---(7)-x--x--x--x--x--x--x--|

D|--(0)-x--x--x--x--x--x--x---(2)-x--x--x--x--x--x--x---(4)-x--x--x--x--x--x--x---(7)-x--x--x--x--x--x--x--|

 

GUITAR 3:

 

e|---------------------------------------------------------------------------|

B|---------------------------------------------------9-----7-----------------|

G|-----------6--9-------------6--9-------------6--9-----------9--7--6-----6--|

D|-----6--9-------------6--9-------------6--9-----------7--------------9-----|

A|--9----------------9----------------9--------------------------------------|

D|---------------------------------------------------------------------------|

 

GUITAR 1:

 

e|---------------------------------------------------------|

B|---------------------------------------------------------|

G|---------------------------------------------------------|

D|--(0)-x--x--x--x--x--x--x---(2)-x--x--x--x--x--x--x---4--|

A|--(0)-x--x--x--x--x--x--x---(2)-x--x--x--x--x--x--x---4--|

D|--(0)-x--x--x--x--x--x--x---(2)-x--x--x--x--x--x--x---4--|

 

GUITAR 3:

 

e|-----------------------------------|

B|-----------------------------------|

G|-----------6--9--------------------|

D|-----6--9-------------6--9------4--|

A|--9----------------9--------9---4--|

D|--------------------------------4--|

©2015 by Fefe - Tron544

Sigueme en:

  • YouTube - White Circle
  • Facebook - White Circle
  • Instagram - White Circle
  • Twitter - White Circle
This site was designed with the
.com
website builder. Create your website today.
Start Now