LAVENDER TOWN THEME

POKéMON R/B/Y

TABS ~ By Fefe (Tron544)
 

Intro:

 

e|----------19--------------19--------------19--------------19------|
B|------20------19------20------19------20------19------20------19--|
G|--17--------------17--------------17--------------17--------------|
D|------------------------------------------------------------------|
A|------------------------------------------------------------------|
E|------------------------------------------------------------------|

 


Chorus/Estribillo:

 

GUITAR 1:

 

e|----------19--------------19--------------19--------------19------|
B|------20------19------20------19------20------19------20------19--|
G|--17--------------17--------------17--------------17--------------|
D|------------------------------------------------------------------|
A|------------------------------------------------------------------|
E|------------------------------------------------------------------|

 

GUITAR 2:

 

e|-----------------------------------------------|
B|----------------------------------12-----------|
G|--12---12-------------12--11-------------------|
D|------------14---14-----------14------11---11--|
A|-----------------------------------------------|
E|-----------------------------------------------|

 

GUITAR 3:

 

e|-------------------------------------|
B|-------------------------------------|
G|---------------------------4---------|
D|--5---5-----------5--4---------------|
A|----------7---7---------7-----4---4--|

E|-------------------------------------|

 

BASS:

 

G|-----------------------------------|
D|-----------------------------------|
A|--7------5------3------7--3--2--7--|
E|-----------------------------------|

 

GUITAR 1:

 

e|----------19--------------19--------------19--------------19------|
B|------20------19------20------19------20------19------20------19--|
G|--17--------------17--------------17--------------17--------------|
D|------------------------------------------------------------------|
A|------------------------------------------------------------------|
E|------------------------------------------------------------------|

 

GUITAR 2:

 

e|-----------------------------------------------|
B|----------------------12----------12--13---13--|
G|--12---12---11---11-------12--11---------------|
D|-----------------------------------------------|
A|-----------------------------------------------|
E|-----------------------------------------------|

 

GUITAR 3:

 

e|-------------------------------------|
B|-------------------------------------|
G|------------------4--------4--5---5--|
D|--5---5---4---4------5--4------------|
A|-------------------------------------|
E|-------------------------------------|

 

BASS:

 

G|-----------------------------------|
D|-----------------------------------|
A|--7------5------3------7--3--2--7--|
E|-----------------------------------|

 

GUITAR 1:

 

e|----------19--------------19--------------19--------------19------|
B|------20------19------20------19------20------19------20------19--|
G|--17--------------17--------------17--------------17--------------|
D|------------------------------------------------------------------|
A|------------------------------------------------------------------|
E|------------------------------------------------------------------|

 

GUITAR 2:

 

e|-----------------------------------------------|
B|----------------------------------12-----------|
G|--12---12-------------12--11-------------------|
D|------------14---14-----------14------11---11--|
A|-----------------------------------------------|
E|-----------------------------------------------|

 

GUITAR 3:

 

e|-------------------------------------|
B|-------------------------------------|
G|---------------------------4---------|
D|--5---5-----------5--4---------------|
A|----------7---7---------7-----4---4--|
E|-------------------------------------|

 

BASS:

 

G|-----------------------------------|
D|-----------------------------------|
A|--7------5------3------7--3--2--7--|
E|-----------------------------------|

 

GUITAR 1:

 

e|----------19--------------19--------------19--------------19------|
B|------20------19------20------19------20------19------20------19--|
G|--17--------------17--------------17--------------17--------------|
D|------------------------------------------------------------------|
A|------------------------------------------------------------------|
E|------------------------------------------------------------------|

 

GUITAR 2:

 

e|-----------------------------------------------|
B|----------------------12----------12-----------|
G|--12---12---11---11-------12--11---------------|
D|--------------------------------------10---10--|
A|-----------------------------------------------|
E|-----------------------------------------------|

 

GUITAR 3:

 

e|-------------------------------------|
B|-------------------------------------|
G|------------------4--------4---------|
D|--5---5---4---4------5--4------------|
A|------------------------------3---3--|
E|-------------------------------------|


Interlude/Intermedio:

 

GUITAR 1:

 

e|----------19--------------19--------------19--------------19------|
B|------20------19------20------19------20------19------20------19--|
G|--17--------------17--------------17--------------17--------------|
D|------------------------------------------------------------------|
A|------------------------------------------------------------------|
E|------------------------------------------------------------------|

 

GUITAR 2:

 

e|--19-------------19---19-------------19---19-------------19--|
B|-------20---19-------------20---19-------------20---19-------|
G|-------------------------------------------------------------|
D|-------------------------------------------------------------|
A|-------------------------------------------------------------|
E|-------------------------------------------------------------|

 

BASS:

 

G|---------------|
D|------------9--|
A|--7--10--9-----|
E|---------------|

 

GUITAR 1:

 

e|----------19--------------19--------------19--------------19------|
B|------20------19------20------19------20------19------20------19--|
G|--17--------------17--------------17--------------17--------------|
D|------------------------------------------------------------------|
A|------------------------------------------------------------------|
E|------------------------------------------------------------------|

 

BASS:

 

G|-----------------------------------|
D|-----------------------------------|
A|--7------5------3------7--3--2--7--|
E|-----------------------------------|

Lavender Town Theme - Tron544
00:00 / 00:00
DONATE%20BUTTON%20(EN)_edited.png

Chorus/Estribillo:

 

GUITAR 1:

 

e|----------19--------------19--------------19--------------19------|
B|------20------19------20------19------20------19------20------19--|
G|--17--------------17--------------17--------------17--------------|
D|------------------------------------------------------------------|
A|------------------------------------------------------------------|
E|------------------------------------------------------------------|

 

GUITAR 2:

 

e|-----------------------------------------------|
B|----------------------------------12-----------|
G|--12---12-------------12--11-------------------|
D|------------14---14-----------14------11---11--|
A|-----------------------------------------------|
E|-----------------------------------------------|

 

GUITAR 3:

 

e|-------------------------------------|
B|-------------------------------------|
G|---------------------------4---------|
D|--5---5-----------5--4---------------|
A|----------7---7---------7-----4---4--|
E|-------------------------------------|

 

BASS:

 

G|-----------------------------------|
D|-----------------------------------|
A|--7------5------3------7--3--2--7--|
E|-----------------------------------|

 

GUITAR 1:

 

e|----------19--------------19--------------19--------------19------|
B|------20------19------20------19------20------19------20------19--|
G|--17--------------17--------------17--------------17--------------|
D|------------------------------------------------------------------|
A|------------------------------------------------------------------|
E|------------------------------------------------------------------|

 

GUITAR 2:

 

e|-----------------------------------------------|
B|----------------------12----------12--13---13--|
G|--12---12---11---11-------12--11---------------|
D|-----------------------------------------------|
A|-----------------------------------------------|
E|-----------------------------------------------|

 

GUITAR 3:

 

e|-------------------------------------|
B|-------------------------------------|
G|------------------4--------4--5---5--|
D|--5---5---4---4------5--4------------|
A|-------------------------------------|
E|-------------------------------------|

 

BASS:

 

G|-----------------------------------|
D|-----------------------------------|
A|--7------5------3------7--3--2--7--|
E|-----------------------------------|

 

GUITAR 1:

 

e|----------19--------------19--------------19--------------19------|
B|------20------19------20------19------20------19------20------19--|
G|--17--------------17--------------17--------------17--------------|
D|------------------------------------------------------------------|
A|------------------------------------------------------------------|

E|------------------------------------------------------------------|

 

GUITAR 2:

 

e|-----------------------------------------------|
B|----------------------------------12-----------|
G|--12---12-------------12--11-------------------|
D|------------14---14-----------14------11---11--|
A|-----------------------------------------------|
E|-----------------------------------------------|

 

GUITAR 3:

 

e|-------------------------------------|
B|-------------------------------------|
G|---------------------------4---------|
D|--5---5-----------5--4---------------|
A|----------7---7---------7-----4---4--|
E|-------------------------------------|

 

GUITAR 4:

 

e|--19-------------19---19-------------19---19-------------19--|
B|-------20---19-------------20---19-------------20---19-------|
G|-------------------------------------------------------------|
D|-------------------------------------------------------------|
A|-------------------------------------------------------------|
E|-------------------------------------------------------------|

 

BASS:

 

G|---------------|
D|------------9--|
A|--7--10--9-----|
E|---------------|

 

GUITAR 1:

 

e|----------19--------------19--------------19--------------19------|
B|------20------19------20------19------20------19------20------19--|
G|--17--------------17--------------17--------------17--------------|
D|------------------------------------------------------------------|
A|------------------------------------------------------------------|
E|------------------------------------------------------------------|

 

GUITAR 2:

 

e|-----------------------------------------------|
B|----------------------12----------12-----------|
G|--12---12---11---11-------12--11---------------|
D|--------------------------------------10---10--|
A|-----------------------------------------------|
E|-----------------------------------------------|

 

GUITAR 3:

 

e|-------------------------------------|
B|-------------------------------------|
G|------------------4--------4---------|
D|--5---5---4---4------5--4------------|
A|------------------------------3---3--|
E|-------------------------------------|

 

BASS:

 

G|-----------------------------------|
D|-----------------------------------|
A|--7------5------3------7--3--2--7--|
E|-----------------------------------|

 


Interlude/Intermedio:

 

GUITAR 1:

 

e|----------19--------------19--------------19--------------19------|
B|------20------19------20------19------20------19------20------19--|
G|--17--------------17--------------17--------------17--------------|
D|------------------------------------------------------------------|
A|------------------------------------------------------------------|
E|------------------------------------------------------------------|

 

BASS:

 

G|-----------------------------------|
D|-----------------------------------|
A|--7------5------3------7--3--2--7--|
E|-----------------------------------|

 


Chorus/Estribillo: (Fade Out)

 

GUITAR 1:

 

e|----------19--------------19--------------19--------------19------|
B|------20------19------20------19------20------19------20------19--|
G|--17--------------17--------------17--------------17--------------|
D|------------------------------------------------------------------|
A|------------------------------------------------------------------|
E|------------------------------------------------------------------|

 

GUITAR 2:

 

e|-----------------------------------------------|
B|----------------------------------12-----------|
G|--12---12-------------12--11-------------------|
D|------------14---14-----------14------11---11--|
A|-----------------------------------------------|
E|-----------------------------------------------|

 

GUITAR 3:

 

e|-------------------------------------|
B|-------------------------------------|
G|---------------------------4---------|
D|--5---5-----------5--4---------------|
A|----------7---7---------7-----4---4--|
E|-------------------------------------|

 

BASS:

 

G|-----------------------------------|
D|-----------------------------------|
A|--7------5------3------7--3--2--7--|
E|-----------------------------------|

 

GUITAR 1:

 

e|----------19--------------19--------------19--------------19------|
B|------20------19------20------19------20------19------20------19--|
G|--17--------------17--------------17--------------17--------------|
D|------------------------------------------------------------------|
A|------------------------------------------------------------------|
E|------------------------------------------------------------------|

 

GUITAR 2:

 

e|-----------------------------------------------|
B|----------------------12----------12--13---13--|
G|--12---12---11---11-------12--11---------------|
D|-----------------------------------------------|
A|-----------------------------------------------|
E|-----------------------------------------------|

 

GUITAR 3:

 

e|-------------------------------------|
B|-------------------------------------|
G|------------------4--------4--5---5--|
D|--5---5---4---4------5--4------------|
A|-------------------------------------|
E|-------------------------------------|

 

BASS:

 

G|-----------------------------------|
D|-----------------------------------|
A|--7------5------3------7--3--2--7--|
E|-----------------------------------|

©2015 by Fefe - Tron544

Sigueme en:

  • YouTube - White Circle
  • Facebook - White Circle
  • Instagram - White Circle
  • Twitter - White Circle
This site was designed with the
.com
website builder. Create your website today.
Start Now