L's THEME

DEATH NOTE

TABS ~ By Fefe (Tron544)
 

PART A/PARTE A:

e|-----------------7---------------------------7---------------|
B|--8---10---7-8-----10-8-7-----8---10---7-8-----10-8-7--------|
G|----9----9-----9----------9-7---9----9-----9----------9-7-9--|
D|-------------------------------------------------------------|
A|-------------------------------------------------------------|
E|-------------------------------------------------------------|


PART B/PARTE B:

e|----------------------------------------------------------|
B|--8-8--8-8--7--8-8-8-8--8-7--8-8--8-8--7--8-8-8-8-10------|
G|--9-9--9-9--9--9-9-9-9--9-9--9-9--9-9--9--9-9-9-9-9-------|
D|--9-9--9-9--9--9-9-9-9--9-9--9-9--9-9--9--9-9-9-9-9-------|
A|----------------------------------------------------------|

E|----------------------------------------------------------|

e|----------------5---------------------------5--------------|
B|--6---8---5-6-----8-6-5-------6---8---5-6-----8-6-5--------|
G|----7---7-----7---------7-5-7---7---7-----7---------7-5-7--|
D|-----------------------------------------------------------|
A|-----------------------------------------------------------|

E|-----------------------------------------------------------|

e|-----------------------------------------------------------|
B|--8-8--8-8--7--8-8-8-8--10-10--8-8--8-8--7--8-8-8-8-7------|
G|--9-9--9-9--9--9-9-9-9--9--9---9-9--9-9--9--9-9-9-9-9------|
D|--9-9--9-9--9--9-9-9-9--9--9---9-9--9-9--9--9-9-9-9-9------|
A|-----------------------------------------------------------|

E|-----------------------------------------------------------|

e|----------------5---------------------------5--------------|
B|--6---8---5-6-----8-6-5-------6---8---5-6-----8-6-5--------|
G|----7---7-----7---------7-5-7---7---7-----7---------7-5-7--|
D|-----------------------------------------------------------|
A|-----------------------------------------------------------|
E|-----------------------------------------------------------|

e|---------------------------------------------------------|
B|--1-1--1-1--0--1-1-1-1--3-3--1-1--1-1--0--1-1-1-1-0------|
G|---------------------------------------------------------|
D|---------------------------------------------------------|
A|---------------------------------------------------------|
E|---------------------------------------------------------|

DOWNLOAD TABS!

 

<- GO BACK

L's Theme - Tron544
00:00 / 00:00
DONATE%20BUTTON%20(EN)_edited.png

©2015 by Fefe - Tron544

Sigueme en:

  • YouTube - White Circle
  • Facebook - White Circle
  • Instagram - White Circle
  • Twitter - White Circle
This site was designed with the
.com
website builder. Create your website today.
Start Now