KYOURAN HEY KIDS!!

NORAGAMI ARAGOTO

TABS ~ By Fefe (Tron544)

 

Intro:

 

GUITAR 1:

 

e|---------------------------------------------------|
B|-----4------------------------4--------------------|
G|-----5---------11-----10------5---------11-----10--|
D|-----5------------------------5--------------------|
A|--3------9--9------8-------3------9--9------8------|
E|---------------------------------------------------|

 

e|------------------------------|
B|-----4---------------------4--|
G|-----5---------11-----10---5--|
D|-----5---------------------5--|
A|--3------9--9------8-------3--|
E|------------------------------|

 

e|----------------------------------------------------|
B|----------------------------------------------------|
G|--5--5--5--5--5--5--5--5----------------------------|
D|--5--5--5--5--5--5--5--5---6--6--6--6---5--5--5--5--|
A|--3--3--3--3--3--3--3--3---6--6--6--6---5--5--5--5--|
E|---------------------------4--4--4--4---3--3--3--3--|

 

GUITAR 3:

 

e|----------11--15--11--14--11--13-p-11------------------------11--15--11--14--11--13-p-11--13-p-11--18--|
B|------13-------------------------------13-p-11-----------13--------------------------------------------|
G|--12--------------------------------------------12---12------------------------------------------------|
D|-------------------------------------------------------------------------------------------------------|
A|-------------------------------------------------------------------------------------------------------|
E|-------------------------------------------------------------------------------------------------------|

 

GUITAR 1:

 

e|----------------------------------------------------|
B|----------------------------------------------------|
G|--5--5--5--5--5--5--5--5----------------------------|
D|--5--5--5--5--5--5--5--5---6--6--6--6---5--5--5--5--|
A|--3--3--3--3--3--3--3--3---6--6--6--6---5--5--5--5--|
E|---------------------------4--4--4--4---3--3--3--3--|

 

GUITAR 3:

 

e|----------11--15--11--14--11--13-p-11---------------------------------------------11----------------------|
B|------13-------------------------------13-p-11-------13--11------11--12--13--13-------13--12--11----------|
G|--12--------------------------------------------12-----------12-----------------------------------12--10--|
D|----------------------------------------------------------------------------------------------------------|
A|----------------------------------------------------------------------------------------------------------|
E|----------------------------------------------------------------------------------------------------------|

 

GUITAR 1:

 

e|----------------------------------------------------|
B|----------------------------------------------------|
G|--5--5--5--5--5--5--5--5----------------------------|
D|--5--5--5--5--5--5--5--5---6--6--6--6---5--5--5--5--|
A|--3--3--3--3--3--3--3--3---6--6--6--6---5--5--5--5--|
E|---------------------------4--4--4--4---3--3--3--3--|

 

GUITAR 3:

 

e|----------11--15--11--14--11--13-p-11------------------------11--15--11--14--11--13-p-11--13-p-11--18--|
B|------13-------------------------------13-p-11-----------13--------------------------------------------|
G|--12--------------------------------------------12---12------------------------------------------------|
D|-------------------------------------------------------------------------------------------------------|
A|-------------------------------------------------------------------------------------------------------|
E|-------------------------------------------------------------------------------------------------------|

 

GUITAR 1:

 

e|----------------------------------------------------|
B|----------------------------------------------------|
G|--5--5--5--5--5--5--5--5----------------------------|
D|--5--5--5--5--5--5--5--5---6--6--6--6---5--5--5--5--|
A|--3--3--3--3--3--3--3--3---6--6--6--6---5--5--5--5--|
E|---------------------------4--4--4--4---3--3--3--3--|

 

GUITAR 3:

 

e|----------11--15--11--14--11--13-p-11---------------------------------------------11--14--11--------------|
B|------13-------------------------------13-p-11-------13--11------11--12--13--13---------------13--12--11--|
G|--12--------------------------------------------12-----------12-------------------------------------------|
D|----------------------------------------------------------------------------------------------------------|
A|----------------------------------------------------------------------------------------------------------|
E|----------------------------------------------------------------------------------------------------------|


 

Verse/Estrofa:

 

GUITAR 1:

 

e|--#--#--#--#--#--#--#--#---#--#--#--#--#--#--#--#---#--#--#--#--#--#--#--#---#--#--#--#--#--#--#--#--|
B|--#--#--#--#--#--#--#--#---#--#--#--#--#--#--#--#---#--#--#--#--#--#--#--#---#--#--#--#--#--#--#--#--|
G|--#--#--#--#--#--#--#--#---#--#--#--#--#--#--#--#---#--#--#--#--#--#--#--#---#--#--#--#--#--#--#--#--|
D|--#--#--#--#--#--#--#--#---#--#--#--#--#--#--#--#---#--#--#--#--#--#--#--#---#--#--#--#--#--#--#--#--|
A|--#--#--#--#--#--#--#--#---#--#--#--#--#--#--#--#---#--#--#--#--#--#--#--#---#--#--#--#--#--#--#--#--|
E|--#--#--#--#--#--#--#--#---#--#--#--#--#--#--#--#---#--#--#--#--#--#--#--#---#--#--#--#--#--#--#--#--|

 

GUITAR 2:

 

e|--------------|---------------------------------------------------------|
B|--------------|---------------------------------------------------------|
G|--------------|----------------------------12--10--12-------------------|
D|------10--12--|--12-/-13--10--10-------10--------------13-------10--12--|
A|--13----------|--------------------13-----------------------13----------|
E|--------------|---------------------------------------------------------|

 

GUITAR 3:

 

e|--6-/-8--8---6-/-8--8---------------------------|
B|--6-/-8--8---6-/-8--8----6-h-8---6---4----------|
G|-----------------------------------------5---3--|
D|------------------------------------------------|
A|------------------------------------------------|
E|------------------------------------------------|

 

GUITAR 1:

 

e|--#--#--#--#--#--#--#--#---#--#--#--#--#--#--#--#---#--#--#--#--#--#--#--#---#--#--#--#--#--#--#--#--|
B|--#--#--#--#--#--#--#--#---#--#--#--#--#--#--#--#---#--#--#--#--#--#--#--#---#--#--#--#--#--#--#--#--|
G|--#--#--#--#--#--#--#--#---#--#--#--#--#--#--#--#---#--#--#--#--#--#--#--#---#--#--#--#--#--#--#--#--|
D|--#--#--#--#--#--#--#--#---#--#--#--#--#--#--#--#---#--#--#--#--#--#--#--#---#--#--#--#--#--#--#--#--|
A|--#--#--#--#--#--#--#--#---#--#--#--#--#--#--#--#---#--#--#--#--#--#--#--#---#--#--#--#--#--#--#--#--|
E|--#--#--#--#--#--#--#--#---#--#--#--#--#--#--#--#---#--#--#--#--#--#--#--#---#--#--#--#--#--#--#--#--|

 

GUITAR 2:

 

e|----------------------------------------------------------|
B|----------------------------------------------------------|
G|----------------------------------------------------------|
D|--12-/-13--10--10---10--10--10--9-----------------10--12--|
A|------------------------------------10---8----13----------|
E|----------------------------------------------------------|

 

GUITAR 3:

 

e|--6-/-8--8---6-/-8--8----15---14---13---11--------|
B|--6-/-8--8---6-/-8--8------------------------13---|
G|--------------------------------------------------|
D|--------------------------------------------------|
A|--------------------------------------------------|
E|--------------------------------------------------|

 

GUITAR 1:

 

e|--#--#--#--#--#--#--#--#---#--#--#--#--#--#--#--#---#--#--#--#--#--#--#--#---#--#--#--#--#--#--#--#--|
B|--#--#--#--#--#--#--#--#---#--#--#--#--#--#--#--#---#--#--#--#--#--#--#--#---#--#--#--#--#--#--#--#--|
G|--#--#--#--#--#--#--#--#---#--#--#--#--#--#--#--#---#--#--#--#--#--#--#--#---#--#--#--#--#--#--#--#--|
D|--#--#--#--#--#--#--#--#---#--#--#--#--#--#--#--#---#--#--#--#--#--#--#--#---#--#--#--#--#--#--#--#--|
A|--#--#--#--#--#--#--#--#---#--#--#--#--#--#--#--#---#--#--#--#--#--#--#--#---#--#--#--#--#--#--#--#--|
E|--#--#--#--#--#--#--#--#---#--#--#--#--#--#--#--#---#--#--#--#--#--#--#--#---#--#--#--#--#--#--#--#--|

 

GUITAR 2:

 

e|---------------------------------------------------------|
B|---------------------------------------------------------|
G|----------------------------12--10--12-------------------|
D|--12-/-13--10--10-------10--------------13-------10--12--|
A|--------------------13-----------------------13----------|
E|---------------------------------------------------------|

 

GUITAR 3:

 

e|--6-/-8--8---6-/-8--8---------------------------|
B|--6-/-8--8---6-/-8--8----6-h-8---6---4----------|
G|-----------------------------------------5---3--|
D|------------------------------------------------|
A|------------------------------------------------|
E|------------------------------------------------|

 

GUITAR 1:

 

e|--#--#--#--#--#--#--#--#---#--#--#--#--#--#--#--#---#--#--#--#--#--#--#--#---#--#--#--#--#--|
B|--#--#--#--#--#--#--#--#---#--#--#--#--#--#--#--#---#--#--#--#--#--#--#--#---#--#--#--#--#--|
G|--#--#--#--#--#--#--#--#---#--#--#--#--#--#--#--#---#--#--#--#--#--#--#--#---#--#--#--#--#--|
D|--#--#--#--#--#--#--#--#---#--#--#--#--#--#--#--#---#--#--#--#--#--#--#--#---#--#--#--#--#--|
A|--#--#--#--#--#--#--#--#---#--#--#--#--#--#--#--#---#--#--#--#--#--#--#--#---#--#--#--#--#--|
E|--#--#--#--#--#--#--#--#---#--#--#--#--#--#--#--#---#--#--#--#--#--#--#--#---#--#--#--#--#--|

 

GUITAR 2:

 

e|---------------------------------------------------------------|
B|---------------------------------------------------------------|
G|---------------------------------------------------------------|
D|--12-/-13--10---12-/-13--10---12-/-13--10----10--10--10--9--9--|
A|---------------------------------------------------------------|
E|---------------------------------------------------------------|

 

GUITAR 3:

 

e|--6-/-8--8---6-/-8--8---6-/-8--8------------------|
B|--6-/-8--8---6-/-8--8---6-/-8--8---9--9--9--8--8--|
G|-----------------------------------8--8--8--7--7--|
D|-----------------------------------6--6--6--5--5--|
A|--------------------------------------------------|
E|--------------------------------------------------|

Kyouran Hey Kids!! - Tron544
00:00 / 00:00
DONATE%20BUTTON%20(EN)_edited.png

Pre-Chorus/Pre-Estribillo:

 

GUITAR 1:

 

e|----------------------------------------------------|
B|----------------------------------------------------|
G|--5--5--5--5--5--5--5--5----------------------------|
D|--5--5--5--5--5--5--5--5---6--6--6--6---5--5--5--5--|
A|--3--3--3--3--3--3--3--3---6--6--6--6---5--5--5--5--|
E|---------------------------4--4--4--4---3--3--3--3--|

 

GUITAR 2:

 

e|--------------------------------------|
B|--------------------------------------|
G|--------------12--10--8--10--10-/-12--|
D|--9-h-10------------------------------|
A|--------------------------------------|
E|--------------------------------------|

 

GUITAR 3:

 

e|----------11--15--11--14--11--13-p-11------------------------11--15--11--14--11--13-p-11--13-p-11--18--|
B|------13-------------------------------13-p-11-----------13--------------------------------------------|
G|--12--------------------------------------------12---12------------------------------------------------|
D|-------------------------------------------------------------------------------------------------------|
A|-------------------------------------------------------------------------------------------------------|
E|-------------------------------------------------------------------------------------------------------|

 

GUITAR 1:

 

e|----------------------------------------------------|
B|----------------------------------------------------|
G|--5--5--5--5--5--5--5--5----------------------------|
D|--5--5--5--5--5--5--5--5---6--6--6--6---5--5--5--5--|
A|--3--3--3--3--3--3--3--3---6--6--6--6---5--5--5--5--|
E|---------------------------4--4--4--4---3--3--3--3--|

 

GUITAR 2:

 

e|-----------------------------------|
B|-----------------------------------|
G|--12-\-10-\-8----------------------|
D|-----------------10--10--10--9--9--|
A|-----------------------------------|
E|-----------------------------------|

 

GUITAR 3:

 

e|----------11--15--11--14--11--13-p-11---------------------------------------------11----------------------|
B|------13-------------------------------13-p-11-------13--11------11--12--13--13-------13--12--11----------|
G|--12--------------------------------------------12-----------12-----------------------------------12--10--|
D|----------------------------------------------------------------------------------------------------------|
A|----------------------------------------------------------------------------------------------------------|
E|----------------------------------------------------------------------------------------------------------|

 

GUITAR 1:

 

e|----------------------------------------------------|
B|----------------------------------------------------|
G|----------------------------------------------------|
D|--3--3--3--5---5--5--5--5--6--6--6--8---8--8--8--8--|
A|--3--3--3--5---5--5--5--5--6--6--6--8---8--8--8--8--|
E|--1--1--1--3---3--3--3--3--4--4--4--6---6--6--6--6--|

 

GUITAR 2:

 

e|------------------------|
B|------------------------|
G|------------------------|
D|--9-h-10----------------|
A|------------10-\-8-\-6--|
E|------------------------|

 

GUITAR 3:

 

e|----------11--14--11--13--11--14--13-p-11--------------------11--15--11--14--11--15--14-p-11-----------|
B|------13-----------------------------------13-p-11-------13-----------------------------------13-p-11--|
G|--12-------------------------------------------------12------------------------------------------------|
D|-------------------------------------------------------------------------------------------------------|
A|-------------------------------------------------------------------------------------------------------|
E|-------------------------------------------------------------------------------------------------------|

 

GUITAR 1:

 

e|-------------------------------------|
B|-------------------------------------|
G|--5--5--5---7--7--7---8--8--8--8--8--|
D|--5--5--5---7--7--7---8--8--8--8--8--|
A|--3--3--3---5--5--5---6--6--6--6--6--|
E|-------------------------------------|

 

GUITAR 3:

 

e|--18---17---16---15--14--13---11--11--11--11--11--|
B|------------------------------11--11--11--11--11--|
G|--------------------------------------------------|
D|--------------------------------------------------|
A|--------------------------------------------------|
E|--------------------------------------------------|

 


Chorus/Estribillo:

 

GUITAR 2:

 

e|-----------------------|
B|------13---11----------|
G|---------------10-\-8--|
D|--10-------------------|
A|-----------------------|
E|-----------------------|

 

GUITAR 1:

 

e|-------------------------------------------------------------------------------------|
B|-------------------------------------------------------------------------------------|
G|----------------------------------------------8--8--8---7--7--7---5--5--5------------|
D|--6--6--6--6--6--6--6---8--8--8--8--8--8--8---8--8--8---8--8--8---5--5--5---8--8--8--|
A|--6--6--6--6--6--6--6---8--8--8--8--8--8--8---6--6--6---5--5--5---3--3--3---8--8--8--|
E|--4--4--4--4--4--4--4---6--6--6--6--6--6--6---------------------------------6--6--6--|

 

GUITAR 2:

 

e|-----------------------------------------------------------------------------------------------|
B|---------------------8--9--8--9--9-/-11----------------------------------------13--11----------|
G|--8-----------8--------------------------10-\-8---8--8--8--7---7---8-------------------10-\-8--|
D|------10--10-----10---------------------------------------------------10---10------------------|
A|-----------------------------------------------------------------------------------------------|
E|-----------------------------------------------------------------------------------------------|

 

GUITAR 3:

 

e|--------------------------------------------------------------------------------------------------------|
B|--9--9--9--9--9--9--9---11--11--11--11--11--11--11---16--16--16---15--15--15---13--13--13---11--11--11--|
G|--8--8--8--8--8--8--8---10--10--10--10--10--10--10---12--12--12---12--12--12---12--12--12---12--12--12--|
D|--------------------------------------------------------------------------------------------------------|
A|--------------------------------------------------------------------------------------------------------|
E|--------------------------------------------------------------------------------------------------------|

 

GUITAR 1:

 

e|-----------------------------------------------------------------------------------------|
B|-----------------------------------------------------------------------------------------|
G|--------------------------------------------------------------------5--5--5--5--5--5--5--|
D|--6--6--6--6--6--6--6---8--8--8--8--8--8--8---5--5--5--5--5--5--5---5--5--5--5--5--5--5--|
A|--6--6--6--6--6--6--6---8--8--8--8--8--8--8---5--5--5--5--5--5--5---3--3--3--3--3--3--3--|
E|--4--4--4--4--4--4--4---6--6--6--6--6--6--6---3--3--3--3--3--3--3------------------------|

 

GUITAR 2:

 

e|----------------------------------------------------------------------------------------------------|
B|---------------------8--9--8--9--9-/-11---------------------------------------------13--11----------|
G|--8-----------8--------------------------8--8--10--12---10--12---12-/-13--12----------------10-\-8--|
D|------10--10-----10-------------------------------------------------------------10------------------|
A|----------------------------------------------------------------------------------------------------|
E|----------------------------------------------------------------------------------------------------|

 

GUITAR 3:

 

e|----------------------------------------------------------------------------------------------------------|
B|--9--9--9--9--9--9--9--11--11--11--11--11--11--11--12--12--12--12--12--12--12--13--13--13--13--13--13--13-|
G|--8--8--8--8--8--8--8--10--10--10--10--10--10--10--12--12--12--12--12--12--12--12--12--12--12--12--12--13-|
D|----------------------------------------------------------------------------------------------------------|
A|----------------------------------------------------------------------------------------------------------|
E|----------------------------------------------------------------------------------------------------------|

 

GUITAR 1:

 

e|---------------------------------------------------------------------------------------|
B|---------------------------------------------------------------------------------------|
G|------------------------------------------------8--8--8---7--7--7---5--5--5------------|
D|--6--6--6--6--6---6--6---8--8--8--8--8---8--8---8--8--8---8--8--8---5--5--5---8--8--8--|
A|--6--6--6--6--6---6--6---8--8--8--8--8---8--8---6--6--6---5--5--5---3--3--3---8--8--8--|
E|--4--4--4--4--4---4--4---6--6--6--6--6---6--6---------------------------------6--6--6--|

 

GUITAR 2:

 

e|-----------------------------------------------------------------------------------------------|
B|---------------------8--9--8--9--9-/-11----------------------------------------13--11----------|
G|--8-----------8--------------------------10-\-8---8--8--8--7---7---8-------------------10-\-8--|
D|------10--10-----10---------------------------------------------------10---10------------------|
A|-----------------------------------------------------------------------------------------------|
E|-----------------------------------------------------------------------------------------------|

 

GUITAR 3:

 

e|---------------------------------------------------------------------------------------------|
B|-----------------------------------------------------------------------8--8--8---11--11--11--|
G|--5--5--5--5--5---5--5---7--7--7--7--7---7--7---8--8--8---10--10--10-------------------------|
D|-----------------------------------------------------------------------5--5--5---8---8---8---|
A|--3--3--3--3--3---3--3---5--5--5--5--5---5--5---6--6--6---8---8---8--------------------------|
E|---------------------------------------------------------------------------------------------|

 

GUITAR 1:

 

e|-----------------------------------------------------------------------------------------|
B|-----------------------------------------------------------------------------------------|
G|-----------------------------------------------------------------------------------------|
D|--6--6--6--6--6---6--6---5--5--5--5---8--8--8--8---10--10---10--10---10--10--10--10--10--|
A|--6--6--6--6--6---6--6---5--5--5--5---8--8--8--8---10--10---10--10---10--10--10--10--10--|
E|--4--4--4--4--4---4--4---3--3--3--3---6--6--6--6---8---8----8---8----8---8---8---8---8---|

 

GUITAR 2:

 

e|-------------------------------------------------------------------------------|
B|---------------------------------------------------------------13--11----------|
G|--8--------------------------------------------------------------------10-\-8--|
D|------10--10---10--10--9-----------------------------------10------------------|
A|--------------------------10--10--10--8--8--8--8-/-10--------------------------|
E|-------------------------------------------------------------------------------|

 

GUITAR 3:

 

e|--8--8--8--8--8---8--8---10--10--10--10--10---10--10---8--8---8--8---8--8--8--8--8--|
B|-------------------------------------------------------8--8---8--8---8--8--8--8--8--|
G|--5--5--5--5--5---5--5---7---7---7---7---7----7---7---------------------------------|
D|------------------------------------------------------------------------------------|
A|------------------------------------------------------------------------------------|
E|------------------------------------------------------------------------------------|

 

GUITAR 1:

 

e|-------------------------------------------------------------------------------------|
B|-------------------------------------------------------------------------------------|
G|----------------------------------------------8--8--8---7--7--7---5--5--5------------|
D|--6--6--6--6--6--6--6---8--8--8--8--8--8--8---8--8--8---8--8--8---5--5--5---8--8--8--|
A|--6--6--6--6--6--6--6---8--8--8--8--8--8--8---6--6--6---5--5--5---3--3--3---8--8--8--|
E|--4--4--4--4--4--4--4---6--6--6--6--6--6--6---------------------------------6--6--6--|

 

GUITAR 2:

 

e|-----------------------------------------------------------------------------------------------|
B|---------------------8--9--8--9--9-/-11----------------------------------------13--11----------|
G|--8-----------8--------------------------10-\-8---8--8--8--7---7---8-------------------10-\-8--|
D|------10--10-----10---------------------------------------------------10---10------------------|
A|-----------------------------------------------------------------------------------------------|
E|-----------------------------------------------------------------------------------------------|

 

GUITAR 3:

 

e|--------------------------------------------------------------------------------------------------------|
B|--9--9--9--9--9--9--9---11--11--11--11--11--11--11---16--16--16---15--15--15---13--13--13---11--11--11--|
G|--8--8--8--8--8--8--8---10--10--10--10--10--10--10---12--12--12---12--12--12---12--12--12---12--12--12--|
D|--------------------------------------------------------------------------------------------------------|
A|--------------------------------------------------------------------------------------------------------|
E|--------------------------------------------------------------------------------------------------------|

 

GUITAR 1:

 

e|------------------------------------------------------|
B|------------------------------------------------------|
G|------------------------------------------------------|
D|--6--6--6--6--6--6--6---5--5--5--5---8--8--8--8---10--|
A|--6--6--6--6--6--6--6---5--5--5--5---8--8--8--8---10--|
E|--4--4--4--4--4--4--4---3--3--3--3---6--6--6--6---8---|

 

GUITAR 2:

 

e|-------------------------------------------------------------------------------|
B|---------------------------------------------------------------13--11----------|
G|--8--------------------------------------------------------------------10-\-8--|
D|------10--10---10--10--9-----------------------------------10------------------|
A|--------------------------10--10--10--8--8--8--8-/-10--------------------------|
E|-------------------------------------------------------------------------------|

 

GUITAR 3:

 

e|--8--8--8--8--8--8--8---10--10--10--10--10--10--10---11--|
B|---------------------------------------------------------|
G|--5--5--5--5--5--5--5---7---7---7---7---7---7---7----8---|
D|---------------------------------------------------------|
A|---------------------------------------------------------|
E|---------------------------------------------------------|

 

GUITAR 1:

 

e|--#--#--#--#--#--#--#--#---#--#--#--#--#--#--#--#---#--#--#--#--#--#--#--#---#----------------|
B|--#--#--#--#--#--#--#--#---#--#--#--#--#--#--#--#---#--#--#--#--#--#--#--#---#----------------|
G|--#--#--#--#--#--#--#--#---#--#--#--#--#--#--#--#---#--#--#--#--#--#--#--#---#----------------|
D|--#--#--#--#--#--#--#--#---#--#--#--#--#--#--#--#---#--#--#--#--#--#--#--#---#---6--6--8--10--|
A|--#--#--#--#--#--#--#--#---#--#--#--#--#--#--#--#---#--#--#--#--#--#--#--#---#---6--6--8--10--|
E|--#--#--#--#--#--#--#--#---#--#--#--#--#--#--#--#---#--#--#--#--#--#--#--#---#---4--4--6--8---|

 

GUITAR 3:

 

e|---------------|
B|---------------|
G|---------------|
D|--6--6--8--10--|
A|--6--6--8--10--|
E|--4--4--6--8---|

©2015 by Fefe - Tron544

Sigueme en:

  • YouTube - White Circle
  • Facebook - White Circle
  • Instagram - White Circle
  • Twitter - White Circle
This site was designed with the
.com
website builder. Create your website today.
Start Now