KYOUMU DENSEN

ANOTHER

TABS ~ By Fefe (Tron544)

 

Intro:

 

e|----------------------------------------|

B|----------------------------------------|

G|------------------------------------12--|

D|-----------12--13--15---15--13--12------|

A|--15---15-------------------------------|

E|----------------------------------------|

 

e|-------------------------------11---11--------------|

B|------12--13--15---15--13--12-----------12--13--15--|

G|--12------------------------------------------------|

D|----------------------------------------------------|

A|----------------------------------------------------|

E|----------------------------------------------------|

 

e|--------------11---11----------13---13--11------|

B|--15--13--12-----------15--13---------------15--|

G|------------------------------------------------|

D|------------------------------------------------|

A|------------------------------------------------|

E|------------------------------------------------|

 

e|------------------------------------------------------------------------------------------13--------------|

B|----------------------------------------------------------------------------------13--15------16--15--16--|

G|-----------------------12-----------------------13---12-------------------13--16--------------------------|

D|--16--15--13---12--13-------15--13--12------13-----------14--15---14--15----------------------------------|

A|----------------------------------------15----------------------------------------------------------------|

E|----------------------------------------------------------------------------------------------------------|

 

e|------------------------------------|------------------------------------|

B|--14--15--14------------------------|--12--14--12------------------------|

G|------------------------------------|------------------------------------|

D|--------------16--12-h-14-p-12--11--|--------------15--12-h-14-p-12--11--|

A|------------------------------------|------------------------------------|

E|------------------------------------|------------------------------------|

 

 

Verse/Estrofa:

 

e|-------------------------------------------|

B|--14---15--14--13--12--12------------------|

G|---------------------------14--11----------|

D|-----------------------------------12--11--|

A|-------------------------------------------|

E|-------------------------------------------|

 

e|------------------------------------------------------------------------|

B|------------------------------------------------------------------------|

G|--11--11---13--11------11--------11--11---11----------------------------|

D|-------------------11------13-----------------14--12--12-h-14-p-12--11--|

A|------------------------------------------------------------------------|

E|------------------------------------------------------------------------|

 

e|--------------------------------------------------------------------------------------------------------|

B|--14---15--14--13--12--12-------------------------------------------------------------------------------|

G|---------------------------14--11----------11--11---13--11------11--------11--14---13--11--11-----------|

D|-----------------------------------12--11-------------------11------13--------------------------14--11--|

A|--------------------------------------------------------------------------------------------------------|

E|--------------------------------------------------------------------------------------------------------|

Kyoumu Densen - Tron544
00:00 / 00:00
DONATE%20BUTTON%20(EN)_edited.png

Pre-Chorus/Pre-Estribillo:

 

e|----------------------------------------------------------------------------------------------------------|

B|----------------------------------------------------------------------------------------------------------|

G|----------------------------------------------------------------------------------------------------------|

D|--11--12--11------11--12--11------11--12--11------11--11--12--11------11--12--11------11--12--11------11--|

A|--------------14--------------14--------------14------------------14--------------14--------------14------|

E|----------------------------------------------------------------------------------------------------------|

 

e|--------------------------------------------------------------------------------|

B|--------------------------------------------------------------------------------|

G|------11---13--10---------------------------11--13--15--13--11--13--15--11--13--|

D|--11---------------13--11--11--13--9--11----------------------------------------|

A|--------------------------------------------------------------------------------|

E|--------------------------------------------------------------------------------|

 

 

Chorus/Estribillo:

 

e|----------------------------------------|------------------------------------------------------------|

B|----------------------------------------|----------------------------------------15--13------13------|

G|-----------------------12---------------|----------13---12-------------------13----------16------12--|

D|--16--15--13---12--13-------15--13--12--|------13-----------14--15---14--15--------------------------|

A|----------------------------------------|--15--------------------------------------------------------|

E|----------------------------------------|------------------------------------------------------------|

 

e|------------------------------------------------------------------------------------------13--------------|

B|----------------------------------------------------------------------------------13--15------16--15--16--|

G|-----------------------12-----------------------13---12-------------------13--16--------------------------|

D|--16--15--13---12--13-------15--13--12------13-----------14--15---14--15----------------------------------|

A|----------------------------------------15----------------------------------------------------------------|

E|----------------------------------------------------------------------------------------------------------|

 

e|----------------------------------------------------------------------------------------------------------|

B|----------------------13--------------------------------------13-----------------------------------13--15-|

G|-----------------12-------15--13--12----------------------12----------15--12---------------12--13---------|

D|-----12--13--15-----------------------15--13--12--13--15----------15----------13---13--15-----------------|

A|-15-------------------------------------------------------------------------------------------------------|

E|----------------------------------------------------------------------------------------------------------|

 

e|--------------------------------------------------------|

B|--------------13--12------------------------------------|

G|----------12----------14--12----------------------------|

D|------13----------------------15--13---13--12-----------|

A|--15--------------------------------------------15--15--|

E|--------------------------------------------------------|

©2015 by Fefe - Tron544

Sigueme en:

  • YouTube - White Circle
  • Facebook - White Circle
  • Instagram - White Circle
  • Twitter - White Circle
This site was designed with the
.com
website builder. Create your website today.
Start Now