KUUSOU MESOROGIWI

MIRAI NIKKI

TABS ~ By Fefe (Tron544)

 

Intro:

 

GUITAR 1:

 

  /~~~~~~~~~~~~~~~~(REPEAT x2 / REPITE x2)~~~~~~~~~~~~~~~~~~\

e|-----------------------------------------------------------|

B|-----------------------------------------------------------|

G|-----------------------------------------------------------|

D|--(1)-x--4---6--7--6--4--1--6---(1)-x---4---6---7---6---4--|

A|--(1)-x--4---6--7--6--4--1--6---(1)-x---4---6---7---6---4--|

D|--(1)-x--4---6--7--6--4--1--6---(1)-x---4---6---7---6---4--|

 

GUITAR 2:

 

  /~~~~~~~~~~~~~~~~~~(REPEAT x2 / REPITE x2)~~~~~~~~~~~~~~~~~~~~~\

e|------------------------------|---------------------------------|

B|-----9---9---10--9---------9--|-----9---9------10-----9---------|

G|--8-----------------11--8-----|--8----------8------8-----8--11--|

D|------------------------------|---------------------------------|

A|------------------------------|---------------------------------|

D|------------------------------|---------------------------------|

 

GUITAR 1:

 

  /~~~~~~~~~~~~~~~~~~~~~~~~~~~~~~~~(REPEAT x2 / REPITE x2)~~~~~~~~~~~~~~~~~~~~~~~~~~~~~~~~~~\

e|-------------------------------------------------------------------------------------------|

B|-------------------------------------------------------------------------------------------|

G|----------------------------------------------------------------------------------------3--|

D|--(1)-x--x---x--x--x---x--x--x--x--x--x--x--x---(1)-x--x---x--x--x---x--x--x--x---x--x--3--|

A|--(1)-x--x---x--x--x---x--x--x--x--x--x--x--x---(1)-x--x---x--x--x---x--x--x--x---x--x--1--|

D|--(1)-x--x---x--x--x---x--x--x--x--x--x--x--x---(1)-x--x---x--x--x---x--x--x--x---x--x-----|

 

GUITAR 2:

 

  /~~~~~~~~~~~~~~~~~~~(REPEAT x2 / REPITE x2)~~~~~~~~~~~~~~~~~~~~~\

e|-----------------9--7------------------------------7--7----------|

B|-----11--10--11--------11--10--11------11--10--11--------11--11--|

G|--8---------------------------------8----------------------------|

D|-----------------------------------------------------------------|

A|-----------------------------------------------------------------|

D|-----------------------------------------------------------------|

 

 

Verse/Estrofa:

 

GUITAR 1:

 

  /~~~~~~~~~~~~~~~~(REPEAT x2 / REPITE x2)~~~~~~~~~~~~~~~~~~~~\

e|-------------------------------------------------------------|

B|-------------------------------------------------------------|

G|--4----4--4--4--4--------------------------------------------|

D|--4----4--4--4--4---(1)-x--1--(1)-x--1--(1)-x--1---(1)-x--1--|

A|--2----2--2--2--2---(1)-x--1--(1)-x--1--(1)-x--1---(1)-x--1--|

D|--------------------(1)-x--1--(1)-x--1--(1)-x--1---(1)-x--1--|

 

GUITAR 2:

 

e|-------------------------------|-----------------------11----------|

B|-------------9--11--9----------|-------------9--11--9------11--11--|

G|--8--10--11------------11--11--|--8--10--11------------------------|

D|-------------------------------|-----------------------------------|

A|-------------------------------|-----------------------------------|

D|-------------------------------|-----------------------------------|

 

GUITAR 1:

 

e|-------------------------------|-------------------------------|

B|-------------------------------|-------------------------------|

G|-------------------------------|-------------------------------|

D|--1--4--1---1--4--6---7--6--4--|--1--4--1---1--4--6---7--6--4--|

A|--1--4--1---1--4--6---7--6--4--|--1--4--1---1--4--6---7--6--4--|

D|--1--4--1---1--4--6---7--6--4--|--1--4--1---1--4--6---7--6--4--|

 

GUITAR 2:

 

e|------------------------------------|--------------------------------|

B|--9--9--9-------------9--10--9------|--9--9--9-------------9--10--9--|

G|-----------8---8--11------------11--|-----------8---8--11------------|

D|------------------------------------|--------------------------------|

A|------------------------------------|--------------------------------|

D|------------------------------------|--------------------------------|

 

GUITAR 1:

 

e|-------------------------------|-------------------------------|

B|-------------------------------|-------------------------------|

G|-------------------------------|-------------------------------|

D|--1--4--1---1--4--6---7--6--4--|--1--4--1---1--4--6---7--6--5--|

A|--1--4--1---1--4--6---7--6--4--|--1--4--1---1--4--6---7--6--5--|

D|--1--4--1---1--4--6---7--6--4--|--1--4--1---1--4--6---7--6--5--|

 

GUITAR 2:

 

e|------------------------------------|--------------------------------|

B|--9--9--9-------------9--10--9------|--9--9--9-------------9--10--9--|

G|-----------8---8--11------------11--|-----------8---8--11------------|

D|------------------------------------|--------------------------------|

A|------------------------------------|--------------------------------|

D|------------------------------------|--------------------------------|

 

GUITAR 3:

 

e|-----------------------|-----------------------|

B|--10--9--7------10--9--|--10--9--7------10--9--|

G|-----------------------|-----------------------|

D|--7---6--4------7---6--|--7---6--4------7---6--|

A|-----------------------|-----------------------|

D|-----------------------|-----------------------|

Kuusou Mesorogiwi - Tron544
00:00 / 00:00
DONATE%20BUTTON%20(EN)_edited.png

Pre-Chorus/Pre-Estribillo:

 

GUITAR 1:

 

e|--------------------------|

B|--------------------------|

G|--------------------------|

D|--4------6------7------6--|

A|--4------6------7------6--|

D|--4------6------7------6--|

 

GUITAR 2:

 

e|----------------------------------------------------------------------|

B|------9--10---10-h-12--10--9----12--10---14--12--10--10---12-p-10--9--|

G|--11------------------------------------------------------------------|

D|----------------------------------------------------------------------|

A|----------------------------------------------------------------------|

D|----------------------------------------------------------------------|

 

GUITAR 3:

 

e|-------------------------------------------------------------------------------------------------------8--|

B|-------------------------------------------------------------------------------------------------7--9-----|

G|--6--4--6-----4------------8--6--8-----6------------9--8--9------8-------------8--6--8--------8-----------|

D|-----------7-----6--7--4------------9-----7--9--6------------11-----9--11--7------------9--6--------------|

A|----------------------------------------------------------------------------------------------------------|

D|----------------------------------------------------------------------------------------------------------|

 

 

Chorus/Estribillo:

 

GUITAR 1:

 

e|---------------------------------------|---------------------------------------|

B|---------------------------------------|---------------------------------------|

G|--6--6--6--6--6--6---------------------|---------------------------------------|

D|--6--6--6--6--6--6---7--7--7--7--7--7--|--4--4--4--4--4--4---6--6--6--6--6--6--|

A|--4--4--4--4--4--4---7--7--7--7--7--7--|--4--4--4--4--4--4---6--6--6--6--6--6--|

D|---------------------7--7--7--7--7--7--|--4--4--4--4--4--4---6--6--6--6--6--6--|

 

GUITAR 2:

 

e|---------------------------------------------------|-------------------------------------------------|

B|--9--10--12--10--9------9----9------10--9--10--12--|--9--10--12--10--9------9----10--9--------9--13--|

G|--------------------11----------11-----------------|--------------------11--------------9--8---------|

D|---------------------------------------------------|-------------------------------------------------|

A|---------------------------------------------------|-------------------------------------------------|

D|---------------------------------------------------|-------------------------------------------------|

 

GUITAR 1:

 

e|---------------------------------------|---------------------------------|

B|---------------------------------------|---------------------------------|

G|--6--6--6--6--6--6---------------------|---------------------------------|

D|--6--6--6--6--6--6---7--7--7--7--7--7--|--4--4--4--4--4--4---6--6--6--6--|

A|--4--4--4--4--4--4---7--7--7--7--7--7--|--4--4--4--4--4--4---6--6--6--6--|

D|---------------------7--7--7--7--7--7--|--4--4--4--4--4--4---6--6--6--6--|

 

GUITAR 2:

 

e|-----------------------------------------|------------------------------------------------------------|

B|--13--11--13--14--9------10--12--14--10--|--12-p-10-p-9-------------------9--10--9----13----------14--|

G|-----------------------------------------|---------------10---10--10--10------------------11--13------|

D|-----------------------------------------|------------------------------------------------------------|

A|-----------------------------------------|------------------------------------------------------------|

D|-----------------------------------------|------------------------------------------------------------|

 

GUITAR 1:

 

e|-------------------------------------------------|-------------------------------------------------|

B|-------------------------------------------------|-------------------------------------------------|

G|--(6)-x--x--x---7--6--4---(6)-x--x--x---7--6-----|--(6)-x--x--x---7--6--4---(6)-x--x--x---7--6-----|

D|--(6)-x--x--x---7--6--4---(6)-x--x--x---7--6--5--|--(6)-x--x--x---7--6--4---(6)-x--x--x---7--6--5--|

A|--(4)-x--x--x---5--4--2---(4)-x--x--x---5--4--5--|--(4)-x--x--x---5--4--2---(4)-x--x--x---5--4--5--|

D|----------------------------------------------5--|----------------------------------------------5--|

 

e|--------------|----------------------|

B|----------12--|--10------12-p-10--9--|

G|------11------|----------------------|

D|--11----------|----------------------|

A|--------------|----------------------|

D|--------------|----------------------|

 

 

Outro:

 

GUITAR 1:

 

e|-----------------------------------------------------------------------------------------------|

B|-----------------------------------------------------------------------------------------------|

G|--(6)-x--x---x--x--x---(5)-x--x--x--x--x--x--x---(6)-x--x---x--x--x---(5)-x--x--x--x--x--x--x--|

D|--(6)-x--x---x--x--x---(4)-x--x--x--x--x--x--x---(6)-x--x---x--x--x---(4)-x--x--x--x--x--x--x--|

A|--(4)-x--x---x--x--x---(3)-x--x--x--x--x--x--x---(4)-x--x---x--x--x---(3)-x--x--x--x--x--x--x--|

D|-----------------------------------------------------------------------------------------------|

 

GUITAR 2:

 

e|-----------9-------------------------------------------9-------------|

B|--9--9--9------10--10--10--9----9--9--9--9----------9-----10--10--9--|

G|---------------------------------------------8---8-------------------|

D|---------------------------------------------------------------------|

A|---------------------------------------------------------------------|

D|---------------------------------------------------------------------|

 

GUITAR 1:

 

e|-----------------------------------------------------------------------------------------------|

B|-----------------------------------------------------------------------------------------------|

G|--(6)-x--x---x--x--x---(5)-x--x--x--x--x--x--x---(6)-x--x---x--x--x---(5)-x--x--x--x--x--x--x--|

D|--(6)-x--x---x--x--x---(4)-x--x--x--x--x--x--x---(6)-x--x---x--x--x---(4)-x--x--x--x--x--x--x--|

A|--(4)-x--x---x--x--x---(3)-x--x--x--x--x--x--x---(4)-x--x---x--x--x---(3)-x--x--x--x--x--x--x--|

D|-----------------------------------------------------------------------------------------------|

 

GUITAR 2:

 

e|--------------9------------------------------------------9--9--9--10--9----9--9--9--9--|

B|--9--9--9--9-----10--10--10--10--10--9----9--9--9--9-----------------------------------|

G|------------------------------------------------------8--------------------------------|

D|---------------------------------------------------------------------------------------|

A|---------------------------------------------------------------------------------------|

D|---------------------------------------------------------------------------------------|

©2015 by Fefe - Tron544

Sigueme en:

  • YouTube - White Circle
  • Facebook - White Circle
  • Instagram - White Circle
  • Twitter - White Circle
This site was designed with the
.com
website builder. Create your website today.
Start Now