KUCHIZUKE DIAMOND

YAMADA-KUN and the 7 Witches

TABS ~ By Fefe (Tron544)

 

Intro:

e|--15--14--12------------------------------------------------------|
B|--------------15----12-13-15-13-12----------------12--------------|
G|-----------------------------------14-12--11--12------------------|
D|--------------------------------------------------------12----12--|
A|------------------------------------------------------------------|
E|------------------------------------------------------------------|

e|------------------------------------------------------|
B|--------------15----12------------------12----15------|
G|------11--12--------------14----12--14----------------|
D|--14--------------------------------------------------|
A|------------------------------------------------------|
E|------------------------------------------------------|


First Verse/Primera Estrofa:

e|-------------------------------------------------------------|
B|-------------------------------------------------------------|
G|-----------7----------------------------------7--------------|
D|--9-9-9-7-----9---------7------------9-7---7----9--9-10-9-7--|
A|-----------------10--10---10-9-10-7--------------------------|
E|-------------------------------------------------------------|

e|----------------------------------------------------------------|
B|----------------------------------------------------------------|
G|-----------7--9------------------------------9-7----------------|
D|--9--9-7-7-------9-----7------------9-7---7----------7----------|
A|--------------------10---10-9-10-7----------------10---10-9-10--|
E|----------------------------------------------------------------|


Re-Intro:

e|--15--14--12------------------------------------------------------|
B|--------------15----12-13-15-13-12----------------12--------------|
G|-----------------------------------14-12--11--12------------------|
D|--------------------------------------------------------12----12--|
A|------------------------------------------------------------------|
E|------------------------------------------------------------------|

e|------------------------------------------------------|
B|--------------15----12------------------12----15------|
G|------11--12--------------14----12--14----------------|
D|--14--------------------------------------------------|
A|------------------------------------------------------|
E|------------------------------------------------------|

Kuchizuke Diamond - Tron544
00:00 / 00:00
DONATE%20BUTTON%20(EN)_edited.png

Second Verse/Segunda Estrofa:

e|-------------------------------------------------------------|
B|-------------------------------------------------------------|
G|-----------7----------------------------------7--------------|
D|--9-9-9-7-----9---------7------------9-7---7----9--9-10-9-7--|
A|-----------------10--10---10-9-10-7--------------------------|
E|-------------------------------------------------------------|

e|---------------------------------------------------------------|
B|---------------------------------------------------------------|
G|-----------7--9------------------------------9-7---------------|
D|--9-9-9-7--------9-----7------------9-7---7-------9-10-9-7-----|
A|--------------------10---10-9-10-7-------------------------10--|
E|---------------------------------------------------------------|


Pre-Chorus/Pre-Estribillo:

e|---------------------------------------------------|
B|-------------7-------------------------------------|
G|-----------------7------9--------------------------|
D|--9---7---9----------9------9-9---9-10-9--7--9-----|
A|-----------------------------------------------10--|
E|---------------------------------------------------|

e|------------------------------------------|
B|-------------7----------------------------|
G|-----------------7------8-7------------7--|
D|--9---7---9----------9------10-10-8-10----|
A|------------------------------------------|
E|------------------------------------------|


Chorus/Estribillo: x3

e|------------|----------------------------------------------------------------|
B|------------|----------------------------------8--7--------------------------|
G|--7-7-9-11--|--11/12---11-9h11---9-9---7-7-7-7-------7----5-5/7----7-7-9-11--|
D|------------|-------------------------------------------9--------------------|
A|------------|----------------------------------------------------------------|
E|------------|----------------------------------------------------------------|

e|---------------------------------------7-8-7----------|
B|----------------------------------------------8/10\8--|
G|--11/12---11-9h11---12-12---7-7-7-9-7-----------------|
D|------------------------------------------------------|
A|------------------------------------------------------|
E|------------------------------------------------------|

 


Outro:

e|--------------------------|
B|--------------------------|
G|-----------9-7/9\7--------|
D|-----9-9-9----------------|
A|--------------------------|
E|--------------------------|

©2015 by Fefe - Tron544

Sigueme en:

  • YouTube - White Circle
  • Facebook - White Circle
  • Instagram - White Circle
  • Twitter - White Circle
This site was designed with the
.com
website builder. Create your website today.
Start Now