~ KISS OF DEATH ~

TABLATURAS ~ By Fefe - Tron544

 

Intro:

GUITAR (Vocals):

e|-----------------------------------------------|
B|-----------------------------------------------|
G|--9--7-6--7--7-/-9-------9--7--6---------------|
D|----------------------7-----------9--9-p-7--7--|
A|-----------------------------------------------|
D|-----------------------------------------------|

e|---------------------------------------------|
B|---------------------------------------------|
G|--6-----------6-------------------9-p-7-\-6--|
D|----7--7----9---6--6--6-h-7--7---------------|
A|---------------------------------------------|
D|---------------------------------------------|

GUITAR (Rhythm):

e|----------------|----------------------------------------|
B|----------------|----------------------------------------|
G|--11---13---14--|----------------------------------------|
D|----------------|--10-x-x-10-x-x-10----10-x-x-10-x-x-10--|
A|--9----11---12--|--8--x-x-8--x-x-8-----8--x-x-8--x-x-8---|
D|----------------|--8--x-x-8--x-x-8-----8--x-x-8--x-x-8---|


Verse/Estrofa:

GUITAR (Vocals):

e|---------------------------------------------------|
B|---------------------------------------------------|
G|--10--9--------9-/-10--9------10-9-----------------|
D|--------10--7---------------7-------10--8--7----7--|
A|---------------------------------------------------|
D|---------------------------------------------------|

e|----------------------------------------------------|
B|----------------------------------------------------|
G|--10--9--------9-/-10--9----------9-/-10--9------7--|
D|--------10--7---------------10-10------------10-----|
A|----------------------------------------------------|
D|----------------------------------------------------|


Pre-Chorus/Pre-Estribillo:

GUITAR (Vocals):

e|-----------------|----------------------------------------------------------------------------|
B|--10-10-/-11-10--|--8------8--10--10----10-10-/-11-10-8------8-h-10------------10-10-/-11-10--|
G|-----------------|-----10--------------------------------10----------10--10-------------------|
D|-----------------|----------------------------------------------------------------------------|
A|-----------------|----------------------------------------------------------------------------|
D|-----------------|----------------------------------------------------------------------------|

GUITAR (Rhythm):

e|----------------------------------------|
B|----------------------------------------|
G|----------------------------------------|
D|--10----------10----------7----------0--|
A|--8-----------8-----------7----------0--|
D|--8-----------8-----------7----------0--|

GUITAR (Vocals):

e|----------------------------------------------|----------------------------------------|
B|--8------8--10--10----10-8----8--10-/-11--10--|--11-/-13-11--10------------10----------|
G|-----10--------------------10-----------------|------------------12--10-12-----10-\-7--|
D|----------------------------------------------|----------------------------------------|
A|----------------------------------------------|----------------------------------------|
D|----------------------------------------------|----------------------------------------|

GUITAR (Harmony):

e|----------------------------------|
B|----------------------------------|
G|----------------------------------|
D|--8-/-10-8--7-----------7---------|
A|---------------10--8-10----8-\-5--|
D|----------------------------------|

GUITAR (Rhythm):

e|------------------------------------------|
B|------------------------------------------|
G|------------------------------------------|
D|--10----------10----------10----------10--|
A|--8-----------8-----------10----------10--|
D|--8-----------8-----------10----------10--|

 


Chorus/Estribillo:

GUITAR (Vocals):

e|-----------------------------------------------------------------------|
B|--11-/-13-11--10--11--11-/-13--------11-/-13--11--10-------------------|
G|---------------------------------10-------------------12--12-\-10--10--|
D|-----------------------------------------------------------------------|
A|-----------------------------------------------------------------------|
D|-----------------------------------------------------------------------|

GUITAR (Harmony):

e|--------------------------|
B|--8-/-10-8--6--8--8-/-10--|
G|--------------------------|
D|--------------------------|
A|--------------------------|
D|--------------------------|

GUITAR (Rhythm):

e|------------------------------------------------------------------------------|
B|------------------------------------------------------------------------------|
G|------------------------------------------------------------------------------|
D|--10-10--10----(10)-x-10--x-10--x-10----(10)-x-7--x-7--x-7------0--x-x-x-x-0--|
A|--8--8---8-----(8)--x-8---x-8---x-8-----(8)--x-7--x-7--x-7------0--x-x-x-x-0--|
D|--8--8---8-----(8)--x-8---x-8---x-8-----(8)--x-7--x-7--x-7------0--x-x-x-x-0--|

GUITAR (Vocals):

e|-------------------------------------------------------------------|
B|--11-/-13-11--10--11--11-/-13------------11-10-h-11--10------------|
G|--------------------------------12-12---------------------12-\-10--|
D|-------------------------------------------------------------------|
A|-------------------------------------------------------------------|
D|-------------------------------------------------------------------|

GUITAR (Harmony):

e|----------------------------------------------------|
B|--8-/-10-8--6--8--8-/-10-------8-6-h-8--6-----------|
G|--------------------------9-9----------------7-\-5--|
D|----------------------------------------------------|
A|----------------------------------------------------|
D|----------------------------------------------------|

GUITAR (Rhythm):

e|---------------------------------------------------------------------------|
B|---------------------------------------------------------------------------|
G|---------------------------------------------------------------------------|
D|--10-10--10----(10)-x-10--x-10--x-10----(10)-x-7--x-7--x-7------0---2---3--|
A|--8--8---8-----(8)--x-8---x-8---x-8-----(8)--x-7--x-7--x-7------0---2---3--|
D|--8--8---8-----(8)--x-8---x-8---x-8-----(8)--x-7--x-7--x-7------0---2---3--|

GUITAR (Vocals):

e|-----------------------------------------------------------------------|
B|--11-/-13-11--10--11--11-/-13--------11-/-13--11--10-------------------|
G|---------------------------------10-------------------12--12-\-10--10--|
D|-----------------------------------------------------------------------|
A|-----------------------------------------------------------------------|
D|-----------------------------------------------------------------------|

GUITAR (Harmony):

e|--------------------------|
B|--8-/-10-8--6--8--8-/-10--|
G|--------------------------|
D|--------------------------|
A|--------------------------|
D|--------------------------|

GUITAR (Rhythm):

e|------------------------------------------------------------------------------|
B|------------------------------------------------------------------------------|
G|------------------------------------------------------------------------------|
D|--10-10--10----(10)-x-10--x-10--x-10----(10)-x-7--x-7--x-7------0--x-x-x-x-0--|
A|--8--8---8-----(8)--x-8---x-8---x-8-----(8)--x-7--x-7--x-7------0--x-x-x-x-0--|
D|--8--8---8-----(8)--x-8---x-8---x-8-----(8)--x-7--x-7--x-7------0--x-x-x-x-0--|

GUITAR (Vocals):

e|------------------------------------------------------------------|
B|--8-/-10-----------8-8-h-10-----------------------11-/-13-11--10--|
G|---------10--10-------------9--9--9-h-10--10----------------------|
D|------------------------------------------------------------------|
A|------------------------------------------------------------------|
D|------------------------------------------------------------------|

GUITAR (Harmony):

e|----------------------------------------|
B|--5-/-6---------5-5-h-6-----------------|
G|--------5--5------------5--5--5-h-7--5--|
D|----------------------------------------|
A|----------------------------------------|
D|----------------------------------------|

GUITAR (Rhythm):

e|---------------------------------------------------------------------------|
B|---------------------------------------------------------------------------|
G|---------------------------------------------------------------------------|
D|--10-10--10----(10)-x-10--x-10--x-10----(10)-x-7--x-7--x-7------0---2---3--|
A|--8--8---8-----(8)--x-8---x-8---x-8-----(8)--x-7--x-7--x-7------0---2---3--|
D|--8--8---8-----(8)--x-8---x-8---x-8-----(8)--x-7--x-7--x-7------0---2---3--|

KISS OF DEATH - Tron544
00:00 / 00:00

©2019 by Fefe - Tron544

Sigueme en:

  • YouTube - White Circle
  • Facebook - White Circle
  • Instagram - White Circle
  • Twitter - White Circle
This site was designed with the
.com
website builder. Create your website today.
Start Now