~ KIMI GA SUKI DA TO SAKEBITAI ~

TABLATURAS ~ By Fefe - Tron544

 

Intro:

 

e|--1------5------1------3--|

B|--1------6------3------5--|

G|--2------7------3------5--|

D|--3------7------3------5--|

A|--3------5------1------3--|

E|--1-----------------------|

 

e|--1--x--x--1---3--x--x--3---1--x--x--1---(0)-0--x--x--0--x--0--|

B|--3--x--x--3---5--x--x--5---3--x--x--3---(2)-2--x--x--2--x--2--|

G|--3--x--x--3---5--x--x--5---3--x--x--3---(2)-2--x--x--2--x--2--|

D|--3--x--x--3---5--x--x--5---3--x--x--3---(2)-2--x--x--2--x--2--|

A|--1--x--x--1---3--x--x--3---1--x--x--1---(0)-0--x--x--0--x--0--|

E|---------------------------------------------------------------|

 

e|--3---------------------------------|

B|--5---------------------------------|

G|--5---(7)--(5)-------(7)--(5)-------|

D|--5-------------(5)------------(5)--|

A|--3---------------------------------|

E|------------------------------------|

 

e|------------------------------------------------------------------|

B|------------------------------------------------------------------|

G|--7-(PH)--5-(PH)----------5-(PH)----------7-(PH)--5-(PH)----------|

D|------------------7-(PH)----------5-(PH)------------------7-(PH)--|

A|------------------------------------------------------------------|

E|------------------------------------------------------------------|

 

 

Verse/Estrofa:

 

GUITAR 1:

 

e|--1--x--x---x--x--x--x---x--x--x--x---x--x--x--x---5--x--x---x--x--x--x---x--x--x--x---x--x--x--x--|

B|--1--x--x---x--x--x--x---x--x--x--x---x--x--x--x---6--x--x---x--x--x--x---x--x--x--x---x--x--x--x--|

G|--2--x--x---x--x--x--x---x--x--x--x---x--x--x--x---7--x--x---x--x--x--x---x--x--x--x---x--x--x--x--|

D|--3--x--x---x--x--x--x---x--x--x--x---x--x--x--x---7--x--x---x--x--x--x---x--x--x--x---x--x--x--x--|

A|--3--x--x---x--x--x--x---x--x--x--x---x--x--x--x---5--x--x---x--x--x--x---x--x--x--x---x--x--x--x--|

E|--1--x--x---x--x--x--x---x--x--x--x---x--x--x--x---------------------------------------------------|

 

GUITAR 2:

 

e|-----------------------------------------------------------------------|

B|-----------------------------------------------------------------------|

G|--10--9--10---9--10-----------------10--9--10--10--9--10--10-----------|

D|---------------------10--7--8--10-----------------------------7--7--7--|

A|-----------------------------------------------------------------------|

E|-----------------------------------------------------------------------|

 

GUITAR 1:

 

e|--1--x--x---x--x--x--x---0--x--x---x--x--x--x---3--x--x---x--x--x--x---3--x-----------------|

B|--3--x--x---x--x--x--x---1--x--x---x--x--x--x---3--x--x---x--x--x--x---5--x--6--5-----------|

G|--3--x--x---x--x--x--x---2--x--x---x--x--x--x---3--x--x---x--x--x--x---5--x--------5-----5--|

D|--3--x--x---x--x--x--x---2--x--x---x--x--x--x---5--x--x---x--x--x--x---5--x-----------5-----|

A|--1--x--x---x--x--x--x---0--x--x---x--x--x--x---5--x--x---x--x--x--x---3--x-----------------|

E|------------------------------------------------3--x--x---x--x--x--x------------------------|

 

GUITAR 2:

 

e|-------------------------------------------------------|

B|-------------------------------------------------------|

G|--7----------7--7---------------------7-----7----------|

D|-----10--10--------10---7--7--10--10-----9-----10--10--|

A|-------------------------------------------------------|

E|-------------------------------------------------------|

 

GUITAR 1:

 

e|--1--x--x---x--x--x--x---x--x--x--x---x--x--x--x---5--x--x---x--x--x--x---x--x--x--x---x--x--x--x--|

B|--1--x--x---x--x--x--x---x--x--x--x---x--x--x--x---6--x--x---x--x--x--x---x--x--x--x---x--x--x--x--|

G|--2--x--x---x--x--x--x---x--x--x--x---x--x--x--x---7--x--x---x--x--x--x---x--x--x--x---x--x--x--x--|

D|--3--x--x---x--x--x--x---x--x--x--x---x--x--x--x---7--x--x---x--x--x--x---x--x--x--x---x--x--x--x--|

A|--3--x--x---x--x--x--x---x--x--x--x---x--x--x--x---5--x--x---x--x--x--x---x--x--x--x---x--x--x--x--|

E|--1--x--x---x--x--x--x---x--x--x--x---x--x--x--x---------------------------------------------------|

 

GUITAR 2:

 

e|-----------------------------------------------------------------|

B|-----------------------------------------------------------------|

G|--10--9--10---9--10-----------------10--9--10---9--10--10--------|

D|---------------------10--7--8--10--------------------------7--7--|

A|-----------------------------------------------------------------|

E|-----------------------------------------------------------------|

 

GUITAR 1:

 

e|--1--x--x---x--x--x--x---0--x--x---x--x--x--x---3--x--x---x--x--x--x---1--x--x---x--x--x--x--|

B|--3--x--x---x--x--x--x---1--x--x---x--x--x--x---5--x--x---x--x--x--x---1--x--x---x--x--x--x--|

G|--3--x--x---x--x--x--x---2--x--x---x--x--x--x---5--x--x---x--x--x--x---2--x--x---x--x--x--x--|

D|--3--x--x---x--x--x--x---2--x--x---x--x--x--x---5--x--x---x--x--x--x---3--x--x---x--x--x--x--|

A|--1--x--x---x--x--x--x---0--x--x---x--x--x--x---3--x--x---x--x--x--x---3--x--x---x--x--x--x--|

E|-----------------------------------------------------------------------1--x--x---x--x--x--x--|

 

GUITAR 2:

 

e|--------------------------------------------------|

B|----------------------------8---------------------|

G|--7------7------10---9--10-----10--9--10--9-h-10--|

D|-----10-----10------------------------------------|

A|--------------------------------------------------|

E|--------------------------------------------------|

 

 

Pre-Chorus/Pre-Estribillo:

 

GUITAR 1:

 

e|--6--6--6--6----5--5--5--5----3--3--3--3----(3)-3--x--x--3--x--3--|

B|--8--8--8--8----6--6--6--6----3--3--3--3----(3)-3--x--x--3--x--3--|

G|--8--8--8--8----7--7--7--7----3--3--3--3----(3)-3--x--x--3--x--3--|

D|--8--8--8--8----7--7--7--7----5--5--5--5----(5)-5--x--x--5--x--5--|

A|--6--6--6--6----5--5--5--5----5--5--5--5----(5)-5--x--x--5--x--5--|

E|------------------------------3--3--3--3----(3)-3--x--x--3--x--3--|

 

GUITAR 2:

 

e|-----------------------------------------------------------------------|

B|------8--10------------------------------8--10-------------------------|

G|--10---------10--7--10---10--9--10---10---------10--7--10---10--9--10--|

D|-----------------------------------------------------------------------|

A|-----------------------------------------------------------------------|

E|-----------------------------------------------------------------------|

 

GUITAR 1:

 

e|--1--x--x---x--x--x--x---3--x--x---x--x--x--x---3--x--5--x--x--5--x--x--5--5--|

B|--3--x--x---x--x--x--x---3--x--x---x--x--x--x---3--x--5--x--x--5--x--x--5--5--|

G|--3--x--x---x--x--x--x---3--x--x---x--x--x--x---3--x--6--x--x--6--x--x--6--6--|

D|--3--x--x---x--x--x--x---5--x--x---x--x--x--x---3--x--7--x--x--7--x--x--7--7--|

A|--1--x--x---x--x--x--x---5--x--x---x--x--x--x---3--x--7--x--x--7--x--x--7--7--|

E|-------------------------3--x--x---x--x--x--x---3--x--5--x--x--5--x--x--5--5--|

 

GUITAR 2:

 

e|-----------------------------------------------------|

B|------8--10-----------8--10---------------8--8-h-10--|

G|--10---------10---10---------10---10--10-------------|

D|-----------------------------------------------------|

A|-----------------------------------------------------|

E|-----------------------------------------------------|

 

 

Chorus/Estribillo:

 

GUITAR 2:

 

e|--------------------|

B|-----------------8--|

G|----------7--10-----|

D|--10--10------------|

A|--------------------|

E|--------------------|

 

GUITAR 1:

 

e|--1--1--1--1---5--5--5--5---1--1--1--1---3--3--3--3--|

B|--1--1--1--1---6--6--6--6---3--3--3--3---5--5--5--5--|

G|--2--2--2--2---7--7--7--7---3--3--3--3---5--5--5--5--|

D|--3--3--3--3---7--7--7--7---3--3--3--3---5--5--5--5--|

A|--3--3--3--3---5--5--5--5---1--1--1--1---3--3--3--3--|

E|--1--1--1--1-----------------------------------------|

 

GUITAR 2:

 

e|---------------------------------------------------------------------------|

B|--8--10---8--8--8--10-------8--10--8--8------------------------------------|

G|------------------------10---------------10--9--7--7----------------7--10--|

D|------------------------------------------------------10----10--10---------|

A|---------------------------------------------------------------------------|

E|---------------------------------------------------------------------------|

 

GUITAR 1:

 

e|--1--1--1--1---3--3--3--3---1--1--1--1---0--x--x--0--0--0--|

B|--3--3--3--3---5--5--5--5---3--3--3--3---3--x--x--3--3--3--|

G|--3--3--3--3---5--5--5--5---3--3--3--3---2--x--x--2--2--2--|

D|--3--3--3--3---5--5--5--5---3--3--3--3---2--x--x--2--2--2--|

A|--1--1--1--1---3--3--3--3---1--1--1--1---0--x--x--0--0--0--|

E|-----------------------------------------------------------|

 

GUITAR 2:

 

e|-------------------------------------------------------------------------------|

B|-------------10--8-h-10--8------------------8--10--8-h-10-------------------8--|

G|--10--9--10-------------------7--10--9--10---------------------------7--10-----|

D|-------------------------------------------------------------10--10------------|

A|-------------------------------------------------------------------------------|

E|-------------------------------------------------------------------------------|

 

GUITAR 1:

 

e|--5--5--5--5---1--1--1--1---3--3--3--3---1--1--1--1--|

B|--6--6--6--6---3--3--3--3---5--5--5--5---1--1--1--1--|

G|--7--7--7--7---3--3--3--3---5--5--5--5---2--2--2--2--|

D|--7--7--7--7---3--3--3--3---5--5--5--5---3--3--3--3--|

A|--5--5--5--5---1--1--1--1---3--3--3--3---3--3--3--3--|

E|-----------------------------------------1--1--1--1--|

 

GUITAR 2:

 

e|----------------------------------------------------------------------|

B|--8--10---8--8--8--10-------8--10--8--8-------------8-h-10----10--10--|

G|------------------------10---------------10--9------------------------|

D|------------------------------------------------10--------------------|

A|----------------------------------------------------------------------|

E|----------------------------------------------------------------------|

 

GUITAR 1:

 

e|--1---3--3--3---5---5--5--5---1---3--3--3---3--x--x---x--x--x--x--|

B|--3---5--5--5---5---6--6--6---3---5--5--5---3--x--x---x--x--x--x--|

G|--3---5--5--5---6---7--7--7---3---5--5--5---3--x--x---x--x--x--x--|

D|--3---5--5--5---7---7--7--7---3---5--5--5---3--x--x---x--x--x--x--|

A|--1---3--3--3---7---5--5--5---1---3--3--3---1--x--x---x--x--x--x--|

E|----------------5-------------------------------------------------|

 

GUITAR 2:

 

e|----------------------------------------------------------|

B|--10--8--8--------8--10-----------------------------------|

G|--------------10---------10--------7--9--10--9--7--9--10--|

D|-------------------------------10-------------------------|

A|----------------------------------------------------------|

E|----------------------------------------------------------|

 

 

Outro:

 

e|--3-------------------------------------------------------------------------------------------------|

B|--5-------------------------------------------------------------------------------------------------|

G|--5---(7)--(5)-------(7)--(5)-------7-(PH)--5-(PH)----------5-(PH)----------7-(PH)--5-(PH)----------|

D|--5-------------(5)------------(5)------------------7-(PH)----------5-(PH)------------------7-(PH)--|

A|--3-------------------------------------------------------------------------------------------------|

E|----------------------------------------------------------------------------------------------------|

 

e|--1--x--x--1--x--x--1--x--1--x--x--1--|

B|--1--x--x--1--x--x--1--x--1--x--x--1--|

G|--2--x--x--2--x--x--2--x--2--x--x--2--|

D|--3--x--x--3--x--x--3--x--3--x--x--3--|

A|--3--x--x--3--x--x--3--x--3--x--x--3--|

E|--1--x--x--1--x--x--1--x--1--x--x--1--|

 

 

Kimi ga Suki da to Sakebitai - Tron544
00:00 / 00:00

©2019 by Fefe - Tron544

Sigueme en:

  • YouTube - White Circle
  • Facebook - White Circle
  • Instagram - White Circle
  • Twitter - White Circle
This site was designed with the
.com
website builder. Create your website today.
Start Now