~ KAWAKI WO AMEKU ~

ACORDES ~ By Fefe - Tron544

 

*CAPO 2nd FRET / CAPO EN 2do TRASTE*

Chords Used/Acordes Utilizados:

C: x.3.5.5.5.3   Cmaj: x.3.2.0.0.0
D: x.5.7.7.7.5
Em: x.0.2.2.0.0
A: x.0.2.2.2.0   Am: x.0.2.2.1.0
Bm: x.2.4.4.3.2   B7: x.2.4.2.4.2
%: Same as the Measure Before/Lo Mismo que el Compas Anterior


Intro:

    Cmaj7       D             Em          A
e|--------------------0h2-----------------------------|--0--------2--------|
B|--0-----------3----------3--0-----------2-----------|--0--------3--------|
G|--------0--------2----------------0-----------2-----|--0--------2--------|
D|-----2-----0--0----------------2-----0-----2-----0--|--2--------0--------|
A|--3-------------------------------------0-----------|--3-----------------|
E|----------------------------0-----------------------|--------------------|


| Em | % | % | % |

 

Verse/Estrofa:

   C           Bm
NO DESTINY fusawashiku nai
   Em
Konnan ja kitto mono tarinai
      Bm 
Kurai katattokeba umaku iku
  C                 Bm               Em       Bm
Mono, kane, ai, koto, mou jiko kenji akita

C          D
DEJAVU nan ga sonna fuman nan da?
   Em                           A
Sanzan wagamama katattoite kore ijou hoka ni nani ga iru?
  C            D              Em
Sonna tokoro mo wari to kirai ja nai

 

Pre-Chorus/Pre/Estribillo:

  Am                    D
Mou ‘kikiakitan da yo, sono serifu.’
       B7
Chuuto hanpa dake wa iya

 

Chorus/Estribillo:


Mou ii 
C
Sa shite kou shite ittetatte
D
Sishite dou shite? Iwaretatte
Em                          A
Asobi dake nara kantan de shinken koushou muchakucha de
  C              D
Omoi mo shinai omoi kotoba
    B7
Nan do tsukaifurusu no ka?

Douse
   C
Kitai shitetanda deki reisu demo
D
Inyoudarake no PHRASE mo
  Em            A                     C
Kakato mochiagaru kotoba TABOO ni shite
             D
Kuuki wo yonda ame furanaide yo

 

Outro:

| D Bm | Em Bm |

 

 

 

TABLATURAS ~ By Fefe - Tron544

 

Intro:

GUITAR (Vocals):

e|---------------------------------------------------|
B|-----------------12/14-----------------------------|
G|--11--9--9h11-------------14-/-12--12--------9/11--|
D|---------------------------------------------------|
A|---------------------------------------------------|
E|---------------------------------------------------|

GUITAR (Rhythm):

e|--------------------------------------|
B|--------------------------------------|
G|--------------------------------------|
D|--4--------4--------4--------4--------|
A|--4--------4--------4--------4--------|
E|--2--------2--------2--------2--------|

GUITAR (Lead):

  /~~( REPEAT x3/REPITE x3 )~~\
e|-----------------------------|------------------------------|
B|-----------------------------|------------------------------|
G|-----------------------------|--11---11--11--11--11--11-11--|
D|------11--9--7--6--6h7p6-----|--11---11--11--11--11--11-11--|
A|--9-----------------------7--|--9----9---9---9---9---9--9---|
E|-----------------------------|------------------------------|


Verse/Estrofa:

GUITAR (Vocals):

e|------|-----------------------------------|
B|------|--10-10----------------------------|
G|------|-----------------------------------|
D|------|--------11--11--11-9---------------|
A|--12--|---------------------12-11-12--12--|
E|------|-----------------------------------|

GUITAR (Rhythm):

e|------------------|
B|------------------|
G|--7-7-7----6-6-6--|
D|--7-7-7----6-6-6--|
A|--5-5-5----4-4-4--|
E|------------------|

GUITAR (Vocals):

e|---------------------------------------------------------------|
B|---------------------------------------------------------------|
G|---------------------------------------------------------------|
D|----------------------------7-9-7-9-9--7-9-7-9-7-9-7-9/11--11--|
A|--11-12-11-9-9-11-11-12-12-------------------------------------|
E|---------------------------------------------------------------|

GUITAR (Rhythm):

e|------------------|
B|------------------|
G|-----------6-6-6--|
D|--4-4-4----6-6-6--|
A|--4-4-4----4-4-4--|
E|--2-2-2-----------|

GUITAR (Vocals):

e|-------------------------------------------------------|
B|-------------------------------------------------------|
G|----------9--------------------------------------------|
D|--9----------11--9--7-6-7-6-7-6-7-6--------------------|
A|----12-12---------------------------9-9----------------|
E|-------------------------------------------------------|

GUITAR (Rhythm):

e|------------------------------------|
B|------------------------------------|
G|--7-7-7----6-6-6-------------6-6-6--|
D|--7-7-7----6-6-6----4-4-4----6-6-6--|
A|--5-5-5----4-4-4----4-4-4----4-4-4--|
E|--------------------2-2-2-----------|

GUITAR (Vocals):

e|----------------------------------------|
B|--10-10---------------------------------|
G|----------------------------------------|
D|--------11--11--11-9-7-9-7-9--9/11-9-7--|
A|----------------------------------------|
E|----------------------------------------|

GUITAR (Rhythm):

e|--------------------|
B|--------------------|
G|--7--------9--------|
D|--7--------9--------|
A|--5--------7--------|
E|--------------------|

GUITAR (Lead):

e|--------------------|
B|------5-------------|
G|----6---------------|
D|--7----------6-9----|
A|-----------7--------|
E|--------------------|

GUITAR (Vocals):

e|--------------------------------------------------------------|
B|--------------------------------------------------------------|
G|--------------------------------------------------------------|
D|--9-7-9-7-9-7-9-9--9/11--9---9-7-9-9--7-9-7-9-7-9-7-9/11--11--|
A|--------------------------------------------------------------|
E|--------------------------------------------------------------|

GUITAR (Rhythm):

e|--------------------|
B|--------------------|
G|-----------4--------|
D|--4--------4--------|
A|--4--------2--------|
E|--2-----------------|

GUITAR (Lead):

e|----------------------------|
B|---------10---9h10p9--7-----|
G|-------9--------------------|
D|--9/11----------------------|
A|----------------------------|
E|----------------------------|

GUITAR (Vocals):

e|---------------------------------------------------|
B|---------------------------------------------------|
G|----------9----------------------------------------|
D|--9----------11--9--7-6-7--7p6--6\4----------------|
A|----12-12------------------------------------------|
E|---------------------------------------------------|

GUITAR (Rhythm):

e|---------------------------------------|
B|---------------------------------------|
G|--7--------9---------------------------|
D|--7--------9--------4--------4---------|
A|--5--------7--------4--------4---------|
E|--------------------2--------2---------|


GUITAR (Lead):

e|-----------------------------------12---------|
B|------5-------------------------10------------|
G|----6------------------------11---------------|
D|--7----------6-9----9/11----------------------|
A|-----------7----------------------------------|
E|----------------------------------------------|


Pre-Chorus/Estribillo:

GUITAR (Vocals):

e|-----|----------#-#-#-#-#-#-#-#-#-#--------------------------------------------|
B|-----|----------#-#-#-#-#-#-#-#-#-#-----10-12-10-12-10-12-10-12-10-12-12/14----|
G|--9--|--9/11----#-#-#-#-#-#-#-#-#-#--------------------------------------------|
D|-----|----------#-#-#-#-#-#-#-#-#-#--------------------------------------------|
A|-----|-------------------------------------------------------------------------|
E|-----|-------------------------------------------------------------------------|

GUITAR (Rhythm):

e|-----------------------------------------------------------|
B|-----------------------------------------------------------|
G|--4-4-4-4-4-4-4-4--7-7-7-7-7-7-7-7--6-6-6-6-6-6--6--6-6-6--|
D|--4-4-4-4-4-4-4-4--7-7-7-7-7-7-7-7--6-6-6-6-6-4--6--6-6-6--|
A|--2-2-2-2-2-2-2-2--5-5-5-5-5-5-5-5--4-4-4-4-4-4--4--4-4-4--|
E|-----------------------------------------------------------|

 


Chorus/Estribillo:

GUITAR (Vocals):

e|----------|--9--------------------9----------------------|
B|------10--|----12-12-10-9-10-9------12-12-10-9-9-10-9----|
G|--11------|--------------------9----------------------9--|
D|----------|----------------------------------------------|
A|----------|----------------------------------------------|
E|----------|----------------------------------------------|

GUITAR (Rhythm):

e|--------------------------------|
B|--------------------------------|
G|--7--7-7--7-7-7--9--9-9--9-9-9--|
D|--7--7-7--7-7-7--9--9-9--9-9-9--|
A|--5--5-5--5-5-5--7--7-7--7-7-7--|
E|--------------------------------|

GUITAR (Vocals):

e|-------------------------------------------------------9--|
B|--9----9----9-9----9-10-10--10-10-10-10-10-10-10-10-10----|
G|----11---11-----11----------------------------------------|
D|----------------------------------------------------------|
A|----------------------------------------------------------|
E|----------------------------------------------------------|

GUITAR (Rhythm):

e|--------------------------------|
B|--------------------------------|
G|-----------------4--4-4--4-4-4--|
D|--4--4-4--4-4-4--4--4-4--4-4-4--|
A|--4--4-4--4-4-4--2--2-2--2-2-2--|
E|--2--2-2--2-2-2-----------------|

GUITAR (Vocals):

e|------------------------------------------------------------------------------------|
B|--12-10-9-10-9-10--10-9-10--10-9-10-9\-------------9-10-12-10-12/14-12/14-------10--|
G|-------------------------------------------8-10-11--------------------------11------|
D|----------------------------------------11------------------------------------------|
A|------------------------------------------------------------------------------------|
E|------------------------------------------------------------------------------------|

GUITAR (Rhythm):

e|---------------------------------------------------------------|
B|---------------------------------------------------------------|
G|--7--7-7--7-7-7--9--9-9--9-9-9--6-6-6-6-6-6--6--6-6-6-6-6-6-6--|
D|--7--7-7--7-7-7--9--9-9--9-9-9--6-6-6-6-6-6--6--6-6-6-6-6-6-6--|
A|--5--5-5--5-5-5--7--7-7--7-7-7--4-4-4-4-4-4--4--4-4-4-4-4-4-4--|
E|---------------------------------------------------------------|

GUITAR (Vocals):

e|--9----------------------9-----------------12-----|
B|----12-12-10-9-9-10-9------12-12-10-9-9-10----12--|
G|----------------------9---------------------------|
D|--------------------------------------------------|
A|--------------------------------------------------|
E|--------------------------------------------------|

GUITAR (Rhythm):

e|--------------------------------|
B|--------------------------------|
G|--7--7-7--7-7-7--9--9-9--9-9-9--|
D|--7--7-7--7-7-7--9--9-9--9-9-9--|
A|--5--5-5--5-5-5--7--7-7--7-7-7--|
E|--------------------------------|

GUITAR (Vocals):

e|----------------------------------10--9--|
B|--12-10--10-9-10-----12-10-12------------|
G|-----------------------------------------|
D|------------------11----------9-9--------|
A|-----------------------------------------|
E|-----------------------------------------|

GUITAR (Rhythm):

e|--------------------------------|
B|--------------------------------|
G|-----------------4--4-4--4-4-4--|
D|--4--4-4--4-4-4--4--4-4--4-4-4--|
A|--4--4-4--4-4-4--2--2-2--2-2-2--|
E|--2--2-2--2-2-2-----------------|

GUITAR (Vocals):

e|---------9----------------------9-9h12--9----------------|
B|--12-10----12-10-10-10-12-10-12------------12-\-10-9h10--|
G|---------------------------------------------------------|
D|---------------------------------------------------------|
A|---------------------------------------------------------|
E|---------------------------------------------------------|

GUITAR (Rhythm):

e|--------------------------|
B|--------------------------|
G|--7--7-7--7-7-7--9--------|
D|--7--7-7--7-7-7--9--------|
A|--5--5-5--5-5-5--7--------|
E|--------------------------|


Outro:

GUITAR (Lead):

e|--(0)-x-(4)-(0)-(5)-(0)-(7)-(0)-(5)-(0)-(4)--(0)-x-(4)-(0)-(5)-(0)-(7)-(0)-(5)-(0)-(4)--|
B|----------------------------------------------------------------------------------------|
G|----------------------------------------------------------------------------------------|
D|----------------------------------------------------------------------------------------|
A|----------------------------------------------------------------------------------------|
E|----------------------------------------------------------------------------------------|

Kawaki wo Ameku - Tron544
00:00 / 00:00

©2019 by Fefe - Tron544

Sigueme en:

  • YouTube - White Circle
  • Facebook - White Circle
  • Instagram - White Circle
  • Twitter - White Circle
This site was designed with the
.com
website builder. Create your website today.
Start Now