~ KATHARSIS ~

TABLATURAS ~ By Fefe - Tron544

 

Intro:

Db        Eb   Fm
  Tatoeba mega samete
Db          Eb     Fm
  Subete wa maboroshi datte
Db       Eb     Fm
  Kiseki meita mouso wo
Db     Eb      Fm
  Kanaete hoshiin da

Db  Eb  Fm
Uhhhh...
  Db        Eb    Fm
Boku ga egaita tsumi de


Db  Eb  Fm
Uhhhh...
       Db        Eb   Fm
Ketsumatsu wo mida sanaide


|  Fm  |  Db  |  Eb  |  Ab  |

 


e|--16-16-16-15------------------11--11-11-11--16-16-16-15--------20--20-----|
B|--------------16------16/18------------------------------16------------21--|
G|--13-13-13---------13----------8---8--8--8---13-13-13--------17------------|
D|---------------------------------------------------------------------------|
A|---------------------------------------------------------------------------|
E|---------------------------------------------------------------------------|

 


Verse/Estrofa:

Db           Eb     Fm   
  Kowashi tsuzuketa boku wa
Db        Eb  Fm  
  Nanika wo sukuu kedo
Db         Eb   Fm
  Kawari hateta ima ni
Db        Eb   Fm
  Kakumei no naifu

 


Chorus/Estribillo:

  Fm           Db
Hodokeru yo ni sashite
  Eb              Ab  Eb/G Fm
Hikari ni michita sayonara wo
          Db             Ab
I’ll miss you, I’ll miss you
              Eb
Batsu wo boku ni (ATAE YO)


Fm        Db      Eb              C7
  Kimi wa mada, boku wo kai shite wa kureru no?
  Eb              C7
Boku wo kai shite wa kureru no?
Fm       Db                 Ab
  Boku janakya, boku ja dame da
       Eb
Boku janakya (COLLAPSE IT)

 


Outro:

Gm               Eb
  Koko wo sashita (NAIFU SAE MO)
F                 Gm
  Itsuka kitto (HIKARI WO SASU KARA)

e|-------------------|
B|--------4----------|
G|--7--6-----7-------|
D|--------------6-b--|
A|-------------------|
E|-------------------|


 

katharsis - Tron544
00:00 / 00:00

©2019 by Fefe - Tron544

Sigueme en:

  • YouTube - White Circle
  • Facebook - White Circle
  • Instagram - White Circle
  • Twitter - White Circle
This site was designed with the
.com
website builder. Create your website today.
Start Now